  0
SECTION
  2
HEADER
  9
$ACADVER
  1
AC1021
  9
$ACADMAINTVER
 70
     1
  9
$DWGCODEPAGE
  3
ANSI_1252
  9
$LASTSAVEDBY
  1
sales-2014
  9
$INSBASE
 10
0.0
 20
0.0
 30
0.0
  9
$EXTMIN
 10
-13.94921241039612
 20
180.1951843400733
 30
-0.0000000000000053
  9
$EXTMAX
 10
66.61293509811087
 20
222.9517478514245
 30
0.0000000000000099
  9
$LIMMIN
 10
-7.171622999999999
 20
-8.920795
  9
$LIMMAX
 10
78.88788599999999
 20
63.67005500000001
  9
$ORTHOMODE
 70
     1
  9
$REGENMODE
 70
     1
  9
$FILLMODE
 70
     1
  9
$QTEXTMODE
 70
     0
  9
$MIRRTEXT
 70
     0
  9
$LTSCALE
 40
5.0
  9
$ATTMODE
 70
     1
  9
$TEXTSIZE
 40
0.7000000000000001
  9
$TRACEWID
 40
0.05
  9
$TEXTSTYLE
  7
STANDARD
  9
$CLAYER
  8
OBJECT
  9
$CELTYPE
  6
BYLAYER
  9
$CECOLOR
 62
   256
  9
$CELTSCALE
 40
1.0
  9
$DISPSILH
 70
     0
  9
$DIMSCALE
 40
10.0
  9
$DIMASZ
 40
0.025
  9
$DIMEXO
 40
0.0625
  9
$DIMDLI
 40
0.1
  9
$DIMRND
 40
0.0
  9
$DIMDLE
 40
0.0
  9
$DIMEXE
 40
0.04
  9
$DIMTP
 40
0.0
  9
$DIMTM
 40
0.0
  9
$DIMTXT
 40
0.07
  9
$DIMCEN
 40
0.09
  9
$DIMTSZ
 40
0.0
  9
$DIMTOL
 70
     0
  9
$DIMLIM
 70
     0
  9
$DIMTIH
 70
     1
  9
$DIMTOH
 70
     1
  9
$DIMSE1
 70
     0
  9
$DIMSE2
 70
     0
  9
$DIMTAD
 70
     0
  9
$DIMZIN
 70
    12
  9
$DIMBLK
  1

  9
$DIMASO
 70
     1
  9
$DIMSHO
 70
     1
  9
$DIMPOST
  1
"\X
  9
$DIMAPOST
  1

  9
$DIMALT
 70
     1
  9
$DIMALTD
 70
     0
  9
$DIMALTF
 40
25.4
  9
$DIMLFAC
 40
1.0
  9
$DIMTOFL
 70
     0
  9
$DIMTVP
 40
0.0
  9
$DIMTIX
 70
     0
  9
$DIMSOXD
 70
     0
  9
$DIMSAH
 70
     1
  9
$DIMBLK1
  1
DOT
  9
$DIMBLK2
  1
DOT
  9
$DIMSTYLE
  2
STANDARD
  9
$DIMCLRD
 70
     0
  9
$DIMCLRE
 70
     0
  9
$DIMCLRT
 70
     0
  9
$DIMTFAC
 40
1.0
  9
$DIMGAP
 40
0.04
  9
$DIMJUST
 70
     0
  9
$DIMSD1
 70
     0
  9
$DIMSD2
 70
     0
  9
$DIMTOLJ
 70
     1
  9
$DIMTZIN
 70
     8
  9
$DIMALTZ
 70
    12
  9
$DIMALTTZ
 70
     0
  9
$DIMUPT
 70
     0
  9
$DIMDEC
 70
     3
  9
$DIMTDEC
 70
     3
  9
$DIMALTU
 70
     2
  9
$DIMALTTD
 70
     0
  9
$DIMTXSTY
  7
STANDARD
  9
$DIMAUNIT
 70
     0
  9
$DIMADEC
 70
     0
  9
$DIMALTRND
 40
0.0
  9
$DIMAZIN
 70
     0
  9
$DIMDSEP
 70
    46
  9
$DIMATFIT
 70
     3
  9
$DIMFRAC
 70
     0
  9
$DIMLDRBLK
  1
DOT
  9
$DIMLUNIT
 70
     2
  9
$DIMLWD
 70
    -2
  9
$DIMLWE
 70
    -2
  9
$DIMTMOVE
 70
     0
  9
$DIMFXL
 40
0.18
  9
$DIMFXLON
 70
     0
  9
$DIMJOGANG
 40
0.7853981633974483
  9
$DIMTFILL
 70
     0
  9
$DIMTFILLCLR
 70
     0
  9
$DIMARCSYM
 70
     0
  9
$DIMLTYPE
  6
BYLAYER
  9
$DIMLTEX1
  6

  9
$DIMLTEX2
  6

  9
$LUNITS
 70
     2
  9
$LUPREC
 70
     4
  9
$SKETCHINC
 40
0.1
  9
$FILLETRAD
 40
0.25
  9
$AUNITS
 70
     0
  9
$AUPREC
 70
     0
  9
$MENU
  1
.
  9
$ELEVATION
 40
0.0
  9
$PELEVATION
 40
0.0
  9
$THICKNESS
 40
0.0
  9
$LIMCHECK
 70
     0
  9
$CHAMFERA
 40
0.0
  9
$CHAMFERB
 40
0.0
  9
$CHAMFERC
 40
0.0
  9
$CHAMFERD
 40
0.0
  9
$SKPOLY
 70
     0
  9
$TDCREATE
 40
2450454.328560533
  9
$TDUCREATE
 40
2450454.536893866
  9
$TDUPDATE
 40
2457232.437813414
  9
$TDUUPDATE
 40
2457232.646146748
  9
$TDINDWG
 40
6.2745491898
  9
$TDUSRTIMER
 40
6.2745491898
  9
$USRTIMER
 70
     1
  9
$ANGBASE
 50
0.0
  9
$ANGDIR
 70
     0
  9
$PDMODE
 70
     2
  9
$PDSIZE
 40
0.4
  9
$PLINEWID
 40
0.0
  9
$SPLFRAME
 70
     0
  9
$SPLINETYPE
 70
     6
  9
$SPLINESEGS
 70
     8
  9
$HANDSEED
  5
B5D5
  9
$SURFTAB1
 70
     6
  9
$SURFTAB2
 70
     6
  9
$SURFTYPE
 70
     6
  9
$SURFU
 70
     6
  9
$SURFV
 70
     6
  9
$UCSBASE
  2

  9
$UCSNAME
  2

  9
$UCSORG
 10
0.0
 20
0.0
 30
0.0
  9
$UCSXDIR
 10
1.0
 20
0.0
 30
0.0
  9
$UCSYDIR
 10
0.0
 20
1.0
 30
0.0
  9
$UCSORTHOREF
  2

  9
$UCSORTHOVIEW
 70
     0
  9
$UCSORGTOP
 10
0.0
 20
0.0
 30
0.0
  9
$UCSORGBOTTOM
 10
0.0
 20
0.0
 30
0.0
  9
$UCSORGLEFT
 10
0.0
 20
0.0
 30
0.0
  9
$UCSORGRIGHT
 10
0.0
 20
0.0
 30
0.0
  9
$UCSORGFRONT
 10
0.0
 20
0.0
 30
0.0
  9
$UCSORGBACK
 10
0.0
 20
0.0
 30
0.0
  9
$PUCSBASE
  2

  9
$PUCSNAME
  2

  9
$PUCSORG
 10
0.0
 20
0.0
 30
0.0
  9
$PUCSXDIR
 10
1.0
 20
0.0
 30
0.0
  9
$PUCSYDIR
 10
0.0
 20
1.0
 30
0.0
  9
$PUCSORTHOREF
  2

  9
$PUCSORTHOVIEW
 70
     0
  9
$PUCSORGTOP
 10
0.0
 20
0.0
 30
0.0
  9
$PUCSORGBOTTOM
 10
0.0
 20
0.0
 30
0.0
  9
$PUCSORGLEFT
 10
0.0
 20
0.0
 30
0.0
  9
$PUCSORGRIGHT
 10
0.0
 20
0.0
 30
0.0
  9
$PUCSORGFRONT
 10
0.0
 20
0.0
 30
0.0
  9
$PUCSORGBACK
 10
0.0
 20
0.0
 30
0.0
  9
$USERI1
 70
     0
  9
$USERI2
 70
     0
  9
$USERI3
 70
     0
  9
$USERI4
 70
     0
  9
$USERI5
 70
     0
  9
$USERR1
 40
0.0
  9
$USERR2
 40
0.0
  9
$USERR3
 40
0.0
  9
$USERR4
 40
0.0
  9
$USERR5
 40
0.0
  9
$WORLDVIEW
 70
     0
  9
$SHADEDGE
 70
     3
  9
$SHADEDIF
 70
    70
  9
$TILEMODE
 70
     1
  9
$MAXACTVP
 70
    16
  9
$PINSBASE
 10
0.0
 20
0.0
 30
0.0
  9
$PLIMCHECK
 70
     0
  9
$PEXTMIN
 10
1.000000000000000E+20
 20
1.000000000000000E+20
 30
1.000000000000000E+20
  9
$PEXTMAX
 10
-1.000000000000000E+20
 20
-1.000000000000000E+20
 30
-1.000000000000000E+20
  9
$PLIMMIN
 10
0.0
 20
0.0
  9
$PLIMMAX
 10
12.0
 20
9.0
  9
$UNITMODE
 70
     0
  9
$VISRETAIN
 70
     0
  9
$PLINEGEN
 70
     0
  9
$PSLTSCALE
 70
     1
  9
$TREEDEPTH
 70
  3020
  9
$CMLSTYLE
  2
STANDARD
  9
$CMLJUST
 70
     0
  9
$CMLSCALE
 40
1.0
  9
$PROXYGRAPHICS
 70
     1
  9
$MEASUREMENT
 70
     0
  9
$CELWEIGHT
370
    -1
  9
$ENDCAPS
280
     0
  9
$JOINSTYLE
280
     0
  9
$LWDISPLAY
290
     0
  9
$INSUNITS
 70
     0
  9
$HYPERLINKBASE
  1

  9
$STYLESHEET
  1
monochrome.ctb
  9
$XEDIT
290
     1
  9
$CEPSNTYPE
380
     0
  9
$PSTYLEMODE
290
     1
  9
$FINGERPRINTGUID
  2
{C9C781F6-700D-4F31-8636-AAA474958B0A}
  9
$VERSIONGUID
  2
{C0E14B7E-B313-4E7D-813B-AD7CF7BDEEF2}
  9
$EXTNAMES
290
     1
  9
$PSVPSCALE
 40
0.0
  9
$OLESTARTUP
290
     0
  9
$SORTENTS
280
   127
  9
$INDEXCTL
280
     0
  9
$HIDETEXT
280
     0
  9
$XCLIPFRAME
290
     0
  9
$HALOGAP
280
     0
  9
$OBSCOLOR
 70
   257
  9
$OBSLTYPE
280
     0
  9
$INTERSECTIONDISPLAY
280
     0
  9
$INTERSECTIONCOLOR
 70
   257
  9
$DIMASSOC
280
     1
  9
$PROJECTNAME
  1

  9
$CAMERADISPLAY
290
     0
  9
$LENSLENGTH
 40
50.0
  9
$CAMERAHEIGHT
 40
0.0
  9
$STEPSPERSEC
 40
2.0
  9
$STEPSIZE
 40
6.0
  9
$3DDWFPREC
 40
2.0
  9
$PSOLWIDTH
 40
0.25
  9
$PSOLHEIGHT
 40
4.0
  9
$LOFTANG1
 40
1.570796326794896
  9
$LOFTANG2
 40
1.570796326794896
  9
$LOFTMAG1
 40
0.0
  9
$LOFTMAG2
 40
0.0
  9
$LOFTPARAM
 70
     7
  9
$LOFTNORMALS
280
     1
  9
$LATITUDE
 40
37.795
  9
$LONGITUDE
 40
-122.394
  9
$NORTHDIRECTION
 40
0.0
  9
$TIMEZONE
 70
 -8000
  9
$LIGHTGLYPHDISPLAY
280
     1
  9
$TILEMODELIGHTSYNCH
280
     1
  9
$CMATERIAL
347
63F
  9
$SOLIDHIST
280
     1
  9
$SHOWHIST
280
     1
  9
$DWFFRAME
280
     2
  9
$DGNFRAME
280
     0
  9
$REALWORLDSCALE
290
     1
  9
$INTERFERECOLOR
 62
     1
  9
$INTERFEREOBJVS
345
64C
  9
$INTERFEREVPVS
346
649
  9
$CSHADOW
280
     0
  9
$SHADOWPLANELOCATION
 40
0.0
  0
ENDSEC
  0
SECTION
  2
CLASSES
  0
CLASS
  1
IDBUFFER
  2
AcDbIdBuffer
  3
ObjectDBX Classes
 90
        0
 91
        1
280
     0
281
     0
  0
CLASS
  1
ACDBDICTIONARYWDFLT
  2
AcDbDictionaryWithDefault
  3
ObjectDBX Classes
 90
        0
 91
        1
280
     0
281
     0
  0
CLASS
  1
DICTIONARYVAR
  2
AcDbDictionaryVar
  3
ObjectDBX Classes
 90
        0
 91
        5
280
     0
281
     0
  0
CLASS
  1
MATERIAL
  2
AcDbMaterial
  3
ObjectDBX Classes
 90
     1024
 91
        3
280
     0
281
     0
  0
CLASS
  1
VISUALSTYLE
  2
AcDbVisualStyle
  3
ObjectDBX Classes
 90
     4095
 91
       16
280
     0
281
     0
  0
CLASS
  1
TABLESTYLE
  2
AcDbTableStyle
  3
ObjectDBX Classes
 90
     4095
 91
        1
280
     0
281
     0
  0
CLASS
  1
SORTENTSTABLE
  2
AcDbSortentsTable
  3
ObjectDBX Classes
 90
        0
 91
        5
280
     0
281
     0
  0
CLASS
  1
DIMASSOC
  2
AcDbDimAssoc
  3
"AcDbDimAssoc|Product Desc:     AcDim ARX App For Dimension|Company:          Autodesk, Inc.|WEB Address:      www.autodesk.com"
 90
        0
 91
        0
280
     0
281
     0
  0
ENDSEC
  0
SECTION
  2
TABLES
  0
TABLE
  2
VPORT
  5
570
102
{ACAD_XDICTIONARY
360
698
102
}
330
0
100
AcDbSymbolTable
 70
     1
  0
VPORT
  5
A8D8
330
570
100
AcDbSymbolTableRecord
100
AcDbViewportTableRecord
  2
*Active
 70
     0
 10
0.0
 20
0.0
 11
1.0
 21
1.0
 12
26.33186134385737
 22
201.5734660957489
 13
0.0
 23
0.0
 14
1.0
 24
1.0
 15
0.0
 25
0.0
 16
0.0
 26
0.0
 36
1.0
 17
0.0
 27
0.0
 37
0.0
 40
43.08170848101915
 41
2.31725888324873
 42
50.0
 43
0.0
 44
0.0
 50
0.0
 51
0.0
 71
     0
 72
   100
 73
     1
 74
     1
 75
     0
 76
     0
 77
     0
 78
     2
281
     0
 65
     1
110
0.0
120
0.0
130
0.0
111
1.0
121
0.0
131
0.0
112
0.0
122
1.0
132
0.0
 79
     0
146
0.0
348
648
 60
     3
 61
     5
292
     1
282
     1
141
0.0
142
0.0
 63
   250
421
  3355443
  0
ENDTAB
  0
TABLE
  2
LTYPE
  5
56B
330
0
100
AcDbSymbolTable
 70
     9
  0
LTYPE
  5
56C
330
56B
100
AcDbSymbolTableRecord
100
AcDbLinetypeTableRecord
  2
BYBLOCK
 70
     0
  3

 72
    65
 73
     0
 40
0.0
  0
LTYPE
  5
56D
330
56B
100
AcDbSymbolTableRecord
100
AcDbLinetypeTableRecord
  2
BYLAYER
 70
     0
  3

 72
    65
 73
     0
 40
0.0
  0
LTYPE
  5
5
330
56B
100
AcDbSymbolTableRecord
100
AcDbLinetypeTableRecord
  2
CONTINUOUS
 70
     0
  3
Solid line
 72
    65
 73
     0
 40
0.0
  0
LTYPE
  5
3C
330
56B
100
AcDbSymbolTableRecord
100
AcDbLinetypeTableRecord
  2
HIDDEN2
 70
     0
  3
Hidden (.5x) _ _ _ _ _ _ _ _ _ _ _ _ _ _ _ _ _
 72
    65
 73
     2
 40
0.1875
 49
0.125
 74
     0
 49
-0.0625
 74
     0
  0
LTYPE
  5
92A5
330
56B
100
AcDbSymbolTableRecord
100
AcDbLinetypeTableRecord
  2
CENTER
 70
     0
  3
Center ____ _ ____ _ ____ _ ____ _ ____ _ ____
 72
    65
 73
     4
 40
2.0
 49
1.25
 74
     0
 49
-0.25
 74
     0
 49
0.25
 74
     0
 49
-0.25
 74
     0
  0
ENDTAB
  0
TABLE
  2
LAYER
  5
569
102
{ACAD_XDICTIONARY
360
960
102
}
330
0
100
AcDbSymbolTable
 70
    21
  0
LAYER
  5
4
330
569
100
AcDbSymbolTableRecord
100
AcDbLayerTableRecord
  2
0
 70
     0
 62
     7
  6
CONTINUOUS
370
    -3
390
5E0
347
641
  0
LAYER
  5
9
330
569
100
AcDbSymbolTableRecord
100
AcDbLayerTableRecord
  2
BORDER
 70
     0
 62
     5
  6
CONTINUOUS
370
    -3
390
5E0
347
641
  0
LAYER
  5
105
330
569
100
AcDbSymbolTableRecord
100
AcDbLayerTableRecord
  2
DIMENSIONS
 70
     0
 62
     2
  6
CONTINUOUS
370
    -3
390
5E0
347
641
  0
LAYER
  5
34
330
569
100
AcDbSymbolTableRecord
100
AcDbLayerTableRecord
  2
OBJECT
 70
     0
 62
     7
  6
CONTINUOUS
370
    -3
390
5E0
347
641
  0
LAYER
  5
3B
330
569
100
AcDbSymbolTableRecord
100
AcDbLayerTableRecord
  2
HIDDEN
 70
     0
 62
     4
  6
HIDDEN2
370
    -3
390
5E0
347
641
  0
LAYER
  5
1D
330
569
100
AcDbSymbolTableRecord
100
AcDbLayerTableRecord
  2
SSINFO_FRZ
 70
     0
 62
     7
  6
CONTINUOUS
370
    -3
390
5E0
347
641
  0
LAYER
  5
118
330
569
100
AcDbSymbolTableRecord
100
AcDbLayerTableRecord
  2
DEFPOINTS
 70
     0
 62
     7
  6
CONTINUOUS
290
     0
370
    -3
390
5E0
347
641
  0
LAYER
  5
BD
330
569
100
AcDbSymbolTableRecord
100
AcDbLayerTableRecord
  2
BACKGROUND
 70
     0
 62
     3
  6
CONTINUOUS
370
    -3
390
5E0
347
641
  0
LAYER
  5
4B66
330
569
100
AcDbSymbolTableRecord
100
AcDbLayerTableRecord
  2
ToiletSeat
 70
     0
 62
     3
  6
CONTINUOUS
370
    -3
390
5E0
347
641
1001
AcAecLayerStandard
1000

1000

  0
LAYER
  5
92A8
330
569
100
AcDbSymbolTableRecord
100
AcDbLayerTableRecord
  2
CENTER
 70
     0
 62
     6
  6
CENTER
370
    -3
390
5E0
347
641
  0
LAYER
  5
9E2E
330
569
100
AcDbSymbolTableRecord
100
AcDbLayerTableRecord
  2
DETAIL_PRINT
 70
     0
 62
     7
  6
CONTINUOUS
370
    -3
390
5E0
347
641
  0
ENDTAB
  0
TABLE
  2
STYLE
  5
56A
330
0
100
AcDbSymbolTable
 70
     2
  0
STYLE
  5
6
330
56A
100
AcDbSymbolTableRecord
100
AcDbTextStyleTableRecord
  2
STANDARD
 70
     0
 40
0.0
 41
1.0
 50
0.0
 71
     0
 42
0.7000000000000001
  3
zurich-cn-bt.ttf
  4

1001
ACAD
1000
Zurich Cn BT
1071
       34
  0
ENDTAB
  0
TABLE
  2
VIEW
  5
56E
330
0
100
AcDbSymbolTable
 70
     0
  0
ENDTAB
  0
TABLE
  2
UCS
  5
56F
330
0
100
AcDbSymbolTable
 70
     0
  0
ENDTAB
  0
TABLE
  2
APPID
  5
572
330
0
100
AcDbSymbolTable
 70
    14
  0
APPID
  5
281
330
572
100
AcDbSymbolTableRecord
100
AcDbRegAppTableRecord
  2
ACAD
 70
     0
  0
APPID
  5
26
330
572
100
AcDbSymbolTableRecord
100
AcDbRegAppTableRecord
  2
_DES112SSJYHX
 70
     0
  0
APPID
  5
21
330
572
100
AcDbSymbolTableRecord
100
AcDbRegAppTableRecord
  2
_PUN112SSJYHX
 70
     0
  0
APPID
  5
684
330
572
100
AcDbSymbolTableRecord
100
AcDbRegAppTableRecord
  2
ACAD_PSEXT
 70
     0
  0
APPID
  5
7DF
330
572
100
AcDbSymbolTableRecord
100
AcDbRegAppTableRecord
  2
AcadStringInfo
 70
     0
  0
APPID
  5
95F
330
572
100
AcDbSymbolTableRecord
100
AcDbRegAppTableRecord
  2
AcAecLayerStandard
 70
     0
  0
APPID
  5
1E70
330
572
100
AcDbSymbolTableRecord
100
AcDbRegAppTableRecord
  2
ACAD_EXEMPT_FROM_CAD_STANDARDS
 70
     0
  0
APPID
  5
409A
330
572
100
AcDbSymbolTableRecord
100
AcDbRegAppTableRecord
  2
ACAD_DSTYLE_DIMJOGGED_JOGANGLE_SYMBOL
 70
     0
  0
APPID
  5
4B55
330
572
100
AcDbSymbolTableRecord
100
AcDbRegAppTableRecord
  2
ACAD_DSTYLE_DIMEXT_LENGTH
 70
     0
  0
APPID
  5
4B56
330
572
100
AcDbSymbolTableRecord
100
AcDbRegAppTableRecord
  2
ACAD_DSTYLE_DIM_LINETYPE
 70
     0
  0
APPID
  5
4B5D
330
572
100
AcDbSymbolTableRecord
100
AcDbRegAppTableRecord
  2
DCO15
 70
     0
  0
APPID
  5
4C55
330
572
100
AcDbSymbolTableRecord
100
AcDbRegAppTableRecord
  2
AVE_RENDER
 70
     0
  0
APPID
  5
4C56
330
572
100
AcDbSymbolTableRecord
100
AcDbRegAppTableRecord
  2
AVE_MATERIAL
 70
     0
  0
APPID
  5
4C57
330
572
100
AcDbSymbolTableRecord
100
AcDbRegAppTableRecord
  2
ABNSLEADERTOOLS
 70
     0
  0
ENDTAB
  0
TABLE
  2
DIMSTYLE
  5
573
330
0
100
AcDbSymbolTable
 70
     2
100
AcDbDimStyleTable
 71
     1
340
106
  0
DIMSTYLE
105
106
330
573
100
AcDbSymbolTableRecord
100
AcDbDimStyleTableRecord
  2
STANDARD
 70
     0
  3
"\X
 40
10.0
 41
0.025
 43
0.1
 44
0.04
 78
    12
140
0.07
147
0.04
170
     1
171
     0
173
     1
271
     3
272
     3
274
     0
284
     8
285
    12
340
6
341
107
343
107
344
107
  0
ENDTAB
  0
TABLE
  2
BLOCK_RECORD
  5
1
330
0
100
AcDbSymbolTable
 70
    65
  0
BLOCK_RECORD
  5
2
102
{ACAD_XDICTIONARY
360
983
102
}
330
1
100
AcDbSymbolTableRecord
100
AcDbBlockTableRecord
  2
*MODEL_SPACE
340
5E3
 70
     0
280
     1
281
     0
  0
BLOCK_RECORD
  5
566
330
1
100
AcDbSymbolTableRecord
100
AcDbBlockTableRecord
  2
*PAPER_SPACE
340
5E4
 70
     0
280
     1
281
     0
  0
BLOCK_RECORD
  5
23
330
1
100
AcDbSymbolTableRecord
100
AcDbBlockTableRecord
  2
_DES112SSJYHX_NIL
340
0
102
{BLKREFS
331
22
331
4C5A
331
4C64
331
7DE2
331
91EE
331
A69D
331
A6C2
331
A6C8
102
}
 70
     0
280
     1
281
     0
  0
BLOCK_RECORD
  5
107
330
1
100
AcDbSymbolTableRecord
100
AcDbBlockTableRecord
  2
_DOT
340
0
102
{BLKREFS
331
A92E
331
A92F
331
A93D
331
A93E
331
A992
331
A993
331
AD49
331
AD4A
331
AD54
331
AD55
331
AD5E
331
AD5F
331
AD69
331
AD6A
331
AD73
331
AD74
331
AD7E
331
AD7F
331
AD89
331
AD8A
331
AD94
331
AD95
331
B1AD
331
B1AE
331
B1B8
331
B1B9
331
B1C3
331
B1C4
331
B2E6
331
B2E7
331
B2F1
331
B2F2
331
B2FB
331
B2FC
331
B306
331
B307
331
B310
331
B311
331
B334
331
B335
331
B3DE
331
B3DF
331
B3E9
331
B3EA
331
B3F4
331
B3F5
331
B40C
331
B418
331
B424
331
B430
102
}
 70
     0
280
     1
281
     0
  0
BLOCK_RECORD
  5
1E
330
1
100
AcDbSymbolTableRecord
100
AcDbBlockTableRecord
  2
_PUN112SSJYHX_NIL
340
0
102
{BLKREFS
331
1C
331
2B
331
7DE3
331
A6C1
331
A6C7
102
}
 70
     0
280
     1
281
     0
  0
BLOCK_RECORD
  5
2D
330
1
100
AcDbSymbolTableRecord
100
AcDbBlockTableRecord
  2
_DES112SSJYHX1_NIL
340
0
102
{BLKREFS
331
2C
102
}
 70
     0
280
     1
281
     0
  0
BLOCK_RECORD
  5
14
330
1
100
AcDbSymbolTableRecord
100
AcDbBlockTableRecord
  2
BRDA4ATT
340
0
102
{BLKREFS
331
7
331
D7
331
11E
331
1B4
331
1C3
331
1D5
102
}
 70
     0
280
     1
281
     0
  0
BLOCK_RECORD
  5
F4
102
{ACAD_XDICTIONARY
360
F5
102
}
330
1
100
AcDbSymbolTableRecord
100
AcDbBlockTableRecord
  2
ABOARD_P
340
0
102
{BLKREFS
331
F3
331
192
331
194
331
1D1
331
1D3
102
}
 70
     0
280
     1
281
     0
  0
ENDTAB
  0
ENDSEC
  0
SECTION
  2
BLOCKS
  0
BLOCK
  5
564
330
2
100
AcDbEntity
  8
0
100
AcDbBlockBegin
  2
*MODEL_SPACE
 70
     0
 10
0.0
 20
0.0
 30
0.0
  3
*MODEL_SPACE
  1

  0
ENDBLK
  5
565
330
2
100
AcDbEntity
  8
0
100
AcDbBlockEnd
  0
BLOCK
  5
567
330
566
100
AcDbEntity
 67
     1
  8
0
100
AcDbBlockBegin
  2
*PAPER_SPACE
 70
     0
 10
0.0
 20
0.0
 30
0.0
  3
*PAPER_SPACE
  1

  0
ENDBLK
  5
568
330
566
100
AcDbEntity
 67
     1
  8
0
100
AcDbBlockEnd
  0
BLOCK
  5
24
330
23
100
AcDbEntity
  8
0
100
AcDbBlockBegin
  2
_DES112SSJYHX_NIL
 70
     0
 10
0.0
 20
0.0
 30
0.0
  3
_DES112SSJYHX_NIL
  1
_DES112SSJYHX_NIL
  0
ENDBLK
  5
25
330
23
100
AcDbEntity
  8
SSINFO_FRZ
100
AcDbBlockEnd
  0
BLOCK
  5
10D
330
107
100
AcDbEntity
  8
0
100
AcDbBlockBegin
  2
_DOT
 70
     0
 10
0.0
 20
0.0
 30
0.0
  3
_DOT
  1

  0
LWPOLYLINE
  5
108
330
107
100
AcDbEntity
  8
0
  6
ByBlock
 62
     0
100
AcDbPolyline
 90
        2
 70
     1
 43
0.5
 10
-0.25
 20
0.0
 42
1.0
 10
0.25
 20
0.0
 42
1.0
  0
LINE
  5
10C
330
107
100
AcDbEntity
  8
0
  6
ByBlock
 62
     0
100
AcDbLine
 10
-0.5
 20
0.0
 30
0.0
 11
-1.0
 21
0.0
 31
0.0
  0
ENDBLK
  5
10E
330
107
100
AcDbEntity
  8
0
100
AcDbBlockEnd
  0
BLOCK
  5
1F
330
1E
100
AcDbEntity
  8
0
100
AcDbBlockBegin
  2
_PUN112SSJYHX_NIL
 70
     0
 10
0.0
 20
0.0
 30
0.0
  3
_PUN112SSJYHX_NIL
  1
_PUN112SSJYHX_NIL
  0
ENDBLK
  5
20
330
1E
100
AcDbEntity
  8
SSINFO_FRZ
100
AcDbBlockEnd
  0
BLOCK
  5
2E
330
2D
100
AcDbEntity
  8
0
100
AcDbBlockBegin
  2
_DES112SSJYHX1_NIL
 70
     0
 10
0.0
 20
0.0
 30
0.0
  3
_DES112SSJYHX1_NIL
  1
_DES112SSJYHX1_NIL
  0
ENDBLK
  5
2F
330
2D
100
AcDbEntity
  8
SSINFO_FRZ
100
AcDbBlockEnd
  0
BLOCK
  5
30
330
14
100
AcDbEntity
  8
0
100
AcDbBlockBegin
  2
BRDA4ATT
 70
     2
 10
0.0
 20
0.0
 30
0.0
  3
BRDA4ATT
  1

  0
ATTDEF
  5
15
330
14
100
AcDbEntity
  8
BORDER
 62
     7
100
AcDbText
 10
4.6900365829
 20
0.7555637452
 30
0.0
 40
0.12641892
  1

 72
     1
 11
4.6900365829
 21
0.7555637452
 31
0.0
100
AcDbAttributeDefinition
  3
Enter Dealer Name
  2
DEALNAM
 70
     0
280
     0
  0
ATTDEF
  5
16
330
14
100
AcDbEntity
  8
BORDER
 62
     7
100
AcDbText
 10
4.6900365829
 20
0.4051418632866526
 30
0.0
 40
0.12641892
  1

 72
     1
 11
4.6900365829
 21
0.4051418632866526
 31
0.0
100
AcDbAttributeDefinition
  3
Enter Job Name
  2
JOBNAM
 70
     0
280
     0
  0
ATTDEF
  5
17
330
14
100
AcDbEntity
  8
BORDER
 62
     7
100
AcDbText
 10
4.6900365829
 20
0.054755309276258
 30
0.0
 40
0.12641892
  1

 72
     1
 11
4.6900365829
 21
0.054755309276258
 31
0.0
100
AcDbAttributeDefinition
  3
Enter Drawing Description
  2
DESCRIP
 70
     0
280
     0
  0
ATTDEF
  5
18
330
14
100
AcDbEntity
  8
BORDER
 62
     7
100
AcDbText
 10
7.394205647349133
 20
0.7555637452
 30
0.0
 40
0.12641892
  1

 72
     1
 11
7.394205647349133
 21
0.7555637452
 31
0.0
100
AcDbAttributeDefinition
  3
Enter Shop Order #
  2
SONUM
 70
     0
280
     0
  0
ATTDEF
  5
19
330
14
100
AcDbEntity
  8
BORDER
 62
     7
100
AcDbText
 10
6.757394906431883
 20
0.4051418632866526
 30
0.0
 40
0.12641892
  1

 72
     1
 11
6.757394906431883
 21
0.4051418632866526
 31
0.0
100
AcDbAttributeDefinition
  3
Enter Item Number
  2
ITEMNUM
 70
     0
280
     0
  0
ATTDEF
  5
1A
330
14
100
AcDbEntity
  8
BORDER
 62
     7
100
AcDbText
 10
7.588017634051459
 20
0.4051418632866526
 30
0.0
 40
0.12641892
  1

 72
     1
 11
7.588017634051459
 21
0.4051418632866526
 31
0.0
100
AcDbAttributeDefinition
  3
Enter Item Quantity
  2
QTY
 70
     0
280
     0
  0
ATTDEF
  5
1B
330
14
100
AcDbEntity
  8
BORDER
 62
     7
100
AcDbText
 10
7.218851991435335
 20
0.054755309276258
 30
0.0
 40
0.12641892
  1

 72
     1
 11
7.218851991435335
 21
0.054755309276258
 31
0.0
100
AcDbAttributeDefinition
  3
Enter Drawing Number
  2
DRAWNUM
 70
     0
280
     0
  0
INSERT
  5
1C
330
14
100
AcDbEntity
  8
SSINFO_FRZ
  6
Continuous
100
AcDbBlockReference
  2
_PUN112SSJYHX_NIL
 10
8.742687640169258
 20
2.726159569803417
 30
0.0
1001
_PUN112SSJYHX
1002
{
1004
76657273696F6E004572726F723A204D656D6F727920416C6C6F636174696F6E20696E205353434F00E803000031345F316200000031325F316100000076657273696F6E000A44656661756C74696E67202573207400
1002
}
  0
INSERT
  5
22
330
14
100
AcDbEntity
  8
SSINFO_FRZ
  6
Continuous
100
AcDbBlockReference
  2
_DES112SSJYHX_NIL
 10
8.742687640169258
 20
2.726159569803417
 30
0.0
1001
_DES112SSJYHX
1002
{
1004
336472656C69656600008E03010000000C0B7801302E313020202020202020202020205F5352202900100400009A9999999999B93F1FA202000000000000000000000000000000000000000000004A0CDA2CA2023E1F
1004
336472656C69656600008E03010000000C0B7801302E313020202020202020202020205F5352202900100400009A9999999999B93F0325000000000089139A9999999999B93F00000000000000000000000000000000
1004
415243494E53505400008E03010000000C0B78013120202020202020202020205F494E20290A0000002E0400000100000023960373756600202A0C02C4290C0268290C02B80500005C0025001C1DA202EC035600401D
1004
415243494E53505400008E03010000000C0B78013120202020202020202020205F494E20290A0000002E040000010000003D960379726967687420A92031393937206279204175746F6465736B2C20496E632E000602
1004
415243505900505400008E03010000000C0B78013020202020202020202020205F494E20290A0000002E040000000000003A9603D0019603781C9603403A9603A4019603481C9603143A9603280A0D0053482E616324
1004
415243505900505400008E03010000000C0B78013020202020202020202020205F494E20290A0000002E040000000000001F96031C10141802400108FCFA0240011814101C02200E08FCFD00B8000E0056169603662B
1004
415243524400505400008E03010000000C0B78013020202020202020202020205F494E20290A0000002E04000000000000016D0250016D02F4006D0298006D023C006D02701FA202141FA202501DA202B42096039C1A
1004
415243524400505400008E03010000000C0B78013020202020202020202020205F494E20290A0000002E040000000000003DA202C43CA202940000001E3A150008000000080000000700090000000000000000001600
1004
415243594C00505400008E03010000000C0B7801302E352020202020202020205F535220290A00000010040000000000000000E03F006D0298006D023C006D02701FA202141FA202501DA202B42096039C1A9603F409
1004
415243594C00505400008E03010000000C0B7801302E352020202020202020205F535220290A00000010040000000000000000E03F006D023C006D02701FA202141FA202501DA202B42096039C1A9603F40996035C2B
1004
6175746F5F6170705F6C64004E6F20494D50455249414C2044696D7374796C6520466F756E642E0A002E04000001000000006D023C006D02701FA202141FA202501DA202B42096039C1A9603F40996035C2B9603C019
1004
6175746F5F6170705F6C64004E6F20494D50455249414C2044696D7374796C6520466F756E642E0A002E04000001000000056D027C116D02A0056D0220116D0244056D02C4106D02E8046D0268106D028C046D020C10
1004
626F725F636F6C00626F7264657200007068616E746F6D007468640061757072656300005F68616E00E803000079656C6C6F770000000000000000000000000000000000000000000000000000000000000000000000
1004
626F725F636F6C00626F7264657200007068616E746F6D007468640061757072656300005F68616E00E803000079656C6C6F770000000000000000000000000000000000000000000000000000000000000000000000
1004
626F725F6C6179007068615F6C617965720000007468645F6C6179657200000073735F667564676500E8030000626F726465720000000000000000000000000000000000000000000000000000020000007373635F00
1004
626F725F6C6179007068615F6C617965720000007468645F6C6179657200000073735F667564676500E8030000626F726465720000000000000000000000000000000000000000000000000000020000007373635F00
1004
436E74746F67676C65008E03010000000C0B780122416C6C0020202020202020202020205F53545200E8030000416C6C0020202020202020202020205F535452290A000000007801F4DCA400A42C8E03CE510078A800
1004
436E74746F67676C65008E03010000000C0B780122416C6C0020202020202020202020205F53545200E8030000416C6C0020202020202020202020205F535452290A000000007801F4DCA400A42C8E03CE510078A800
1004
6374725F636F6C6F72008E03010000000C0B7801227265640020202020202020202020205F53545200E80300007265640020202020202020202020205F535452290A000000007801F4DCA400A42C8E03CE510078A800
1004
6374725F636F6C6F72008E03010000000C0B7801227265640020202020202020202020205F53545200E80300007265640020202020202020202020205F535452290A000000007801F4DCA400A42C8E03CE510078A800
1004
6374725F6578740072008E03010000000C0B7801302E36202020202020202020202020205F5352200010040000333333333333E33F06AF02A405AF020405AF026004AF02B803AF020C03AF025C02AF02A801AF02F000
1004
6374725F6578740072008E03010000000C0B7801302E36202020202020202020202020205F5352200010040000333333333333E33F022500000000008D13A82096030000000000000000000000000000000000000000
1004
6374725F6C61796572008E03010000000C0B7801226374720020202020202020202020205F53545200E80300006374720020202020202020202020205F535452290A000000007801F4DCA400A42C8E03CE510078A800
1004
6374725F6C61796572008E03010000000C0B7801226374720020202020202020202020205F53545200E80300006374720020202020202020202020205F535452290A000000007801F4DCA400A42C8E03CE510078A800
1004
6374725F6C6E7300700C8E03010000000C0B7801225900202020202020202020202020205F53545200E80300005900202020202020202020202020205F535452290A000000007801F4DCA400A42C8E03CE510078A800
1004
6374725F6C6E7300700C8E03010000000C0B7801225900202020202020202020202020205F53545200E80300005900202020202020202020202020205F535452290A000000007801F4DCA400A42C8E03CE510078A800
1004
637573745F6E616D65008E03010000000C0B780122737472696B657200202020202020205F53545200E8030000737472696B657200202020202020205F535452290A000000007801F4DCA400A42C8E03CE510078A800
1004
637573745F6E616D65008E03010000000C0B780122737472696B657200202020202020205F53545200E8030000737472696B657200202020202020205F535452290A000000007801F4DCA400A42C8E03CE510078A800
1004
44484F4C4550524F54008E03010000000C0B78013020202020202020202020205F494E20290A0000002E040000000000002B9603081996033C09960394279603AC189603883E9603A42A9603401A9603E00896033827
1004
44484F4C4550524F54008E03010000000C0B78013020202020202020202020205F494E20290A0000002E040000000000001996033C09960394279603AC189603883E9603A42A9603401A9603E0089603382796032C3E
1004
44484F4C4550580045008E03010000000C0B78013020202020202020202020205F494E20290A0000002E04000000000000209603BC042500000000008D13B417960300000000000000000000D4040D00737472696B65
1004
44484F4C4550580045008E03010000000C0B78013020202020202020202020205F494E20290A0000002E0400000000000003AF0288012500000000008B13000000000000000000000000000000000000000000000000
1004
44484F4C4550590045008E03010000000C0B78013020202020202020202020205F494E20290A0000002E04000000000000016D0250016D02F4006D0298006D023C006D02701FA202141FA202501DA202B42096039C1A
1004
44484F4C4550590045008E03010000000C0B78013020202020202020202020205F494E20290A0000002E04000000000000106D028C046D020C106D0230046D02B00F6D02D4036D02540F6D0278036D02F80E6D021C03
1004
44484F4C4552440054008E03010000000C0B78013020202020202020202020205F494E20290A0000002E04000000000000116D02FC056D027C116D02A0056D0220116D0244056D02C4106D02E8046D0268106D028C04
1004
44484F4C4552440054008E03010000000C0B78013020202020202020202020205F494E20290A0000002E040000000000000E04020001960176209603F218960338018901B40CAF02580CAF02EC0BAF027C0BAF02080B
1004
44484F4C45524F5400008E03010000000C0B7801302E302020202020202020205F535220290A000000100400000000000000000000089603382796032C3E9603482A960380119603B81F9603DC269603241196035C1F
1004
44484F4C45524F5400008E03010000000C0B7801302E302020202020202020205F535220290A0000001004000000000000000000004E02200E08FCFD0000EA0176209603CE189603400226015C1E12022F0E08FCFD00
1004
44484F4C4554595045008E03010000000C0B78013020202020202020202020205F494E20290A0000002E040000000000000A6D02D4166D02F0096D0278166D0294096D021C166D02500B6D0238096D02DC086D025C14
1004
44484F4C4554595045008E03010000000C0B78013020202020202020202020205F494E20290A0000002E040000000000001FA202501DA202B42096039C1A9603F40996035C2B9603C01996039C3F96031C1896031825
1004
44484F4C45584C0054008E03010000000C0B7801302E373520202020202020205F535220290A00000010040000000000000000E83F06AF02A405AF020405AF026004AF02B803AF020C03AF025C02AF02A801AF02F000
1004
44484F4C45584C0054008E03010000000C0B7801302E373520202020202020205F535220290A00000010040000000000000000E83F189603F40E040214011E10121618161202210116181A1E101E1A020803FE0E0302
1004
44484F4C45594C0054008E03010000000C0B7801312E302020202020202020205F535220290A00000010040000000000000000F03F046D0268106D028C046D020C106D0230046D02B00F6D02D4036D02540F6D027803
1004
44484F4C45594C0054008E03010000000C0B7801312E302020202020202020205F535220290A00000010040000000000000000F03F1F960380269603C810960384089603242696036C10960328089603C82596031010
1004
64696D5F636F6C6F72008E03010000000C0B780122677265656E002020202020202020205F53545200E8030000677265656E002020202020202020205F535452290A000000007801F4DCA400A42C8E03CE510078A800
1004
64696D5F636F6C6F72008E03010000000C0B780122677265656E002020202020202020205F53545200E8030000677265656E002020202020202020205F535452290A000000007801F4DCA400A42C8E03CE510078A800
1004
64696D5F6C61796572008E03010000000C0B78012264696D0020202020202020202020205F53545200E803000064696D0020202020202020202020205F535452290A000000007801F4DCA400A42C8E03CE510078A800
1004
64696D5F6C61796572008E03010000000C0B78012264696D0020202020202020202020205F53545200E803000064696D0020202020202020202020205F535452290A000000007801F4DCA400A42C8E03CE510078A800
1004
44494D505245005400008E03010000000C0B7801302E302020202020202020205F535220290A000000100400000000000000000000042500000000008D13B41796030000000000000000000000000000000000000000
1004
44494D505245005400008E03010000000C0B7801302E302020202020202020205F535220290A000000100400000000000000000000000000000000000000000000000000000000000000000000000000000000000000
1004
44494D505245430000008E03010000000C0B7801342020202020202020202020205F494E20290A00002E0400000400000025960310109603CC079603BC24960370079603B40F960314079603580F9603001F9603FC0E
1004
44494D505245430000008E03010000000C0B7801342020202020202020202020205F494E20290A00002E04000004000000089603C825960310109603CC079603BC24960370079603B40F960314079603580F9603001F
1004
44494D535546005400008E03010000000C0B7801302E302020202020202020205F535220290A0000001004000000000000000000002B9603081996033C09960394279603AC189603883E9603A42A9603401A9603E008
1004
44494D535546005400008E03010000000C0B7801302E302020202020202020205F535220290A0000001004000000000000000000001996033C09960394279603AC189603883E9603A42A9603401A9603E00896033827
1004
4457475F5343414C45008E03010000000C0B7801312E30202020202020202020202020205F5352200010040000000000000000F03F016D0250016D02F4006D0298006D023C006D02701FA202141FA202501DA202B420
1004
4457475F5343414C45008E03010000000C0B7801312E30202020202020202020202020205F5352200010040000000000000000F03F026D02AC016D0250016D02F4006D0298006D023C006D02701FA202141FA202501D
1004
6631306B65790001700C8E03010000000C0B7801227373686F6C657300202020202020205F53545200E80300007373686F6C657300202020202020205F535452290A000000007801F4DCA400A42C8E03CE510078A800
1004
6631306B65790001700C8E03010000000C0B7801227373686F6C657300202020202020205F53545200E80300007373686F6C657300202020202020205F535452290A000000007801F4DCA400A42C8E03CE510078A800
1004
66356B6579000001700C8E03010000000C0B78012273736472617700202020202020205F5354522900E803000073736472617700202020202020205F535452290A00000000007801F4DCA400A42C8E03CE510078A800
1004
66356B6579000001700C8E03010000000C0B78012273736472617700202020202020205F5354522900E803000073736472617700202020202020205F535452290A00000000007801F4DCA400A42C8E03CE510078A800
1004
66366B6579000001700C8E03010000000C0B78012273736564697400202020202020205F5354522900E803000073736564697400202020202020205F535452290A00000000007801F4DCA400A42C8E03CE510078A800
1004
66366B6579000001700C8E03010000000C0B78012273736564697400202020202020205F5354522900E803000073736564697400202020202020205F535452290A00000000007801F4DCA400A42C8E03CE510078A800
1004
66376B6579000001700C8E03010000000C0B7801227373637265617465706172740020205F53545200E80300007373637265617465706172740020205F535452290A000000007801F4DCA400A42C8E03CE510078A800
1004
66376B6579000001700C8E03010000000C0B7801227373637265617465706172740020205F53545200E80300007373637265617465706172740020205F535452290A000000007801F4DCA400A42C8E03CE510078A800
1004
66386B6579000001700C8E03010000000C0B7801227373617070002020202020202020205F53545200E80300007373617070002020202020202020205F535452290A000000007801F4DCA400A42C8E03CE510078A800
1004
66386B6579000001700C8E03010000000C0B7801227373617070002020202020202020205F53545200E80300007373617070002020202020202020205F535452290A000000007801F4DCA400A42C8E03CE510078A800
1004
66396B6579000001700C8E03010000000C0B7801227373647261776661636500202020205F53545200E80300007373647261776661636500202020205F535452290A000000007801F4DCA400A42C8E03CE510078A800
1004
66396B6579000001700C8E03010000000C0B7801227373647261776661636500202020205F53545200E80300007373647261776661636500202020205F535452290A000000007801F4DCA400A42C8E03CE510078A800
1004
686F6C655F73697A65008E03010000000C0B7801302E353030202020202020202020205F535220290010040000000000000000E03F9B38B9DF11E5BF0000000000000000529B38B9DF11E53F529B38B9DF11D5BF0000
1004
686F6C655F73697A65008E03010000000C0B7801302E353030202020202020202020205F535220290010040000000000000000E03F0106035E289603F21196030401281A2C1E20122436021C0121020803FA0E08FCFD
1004
4B4559494E53505400008E03010000000C0B78013020202020202020202020205F494E20290A0000002E040000000000001E9603E80D9603EC1D96038C0D9603901D9603300D9603341D9603D40C9603D81C9603780C
1004
4B4559494E53505400008E03010000000C0B78013020202020202020202020205F494E20290A0000002E040000000000000E9603481E9603E80D9603EC1D96038C0D9603901D9603300D9603341D9603D40C9603D81C
1004
4B45594D4600450000008E03010000000C0B78013020202020202020202020205F494E20290A0000002E04000000000000089603242696036C10960328089603C825960310109603CC079603BC24960370079603B40F
1004
4B45594D4600450000008E03010000000C0B78013020202020202020202020205F494E20290A0000002E040000000000002696036C10960328089603C825960310109603CC079603BC24960370079603B40F96031407
1004
4B45594F4343005400008E03010000000C0B78013020202020202020202020205F494E20290A0000002E04000000000000099603F0279603E43E9603002B9603081996033C09960394279603AC189603883E9603A42A
1004
4B45594F4343005400008E03010000000C0B78013020202020202020202020205F494E20290A0000002E0400000000000019960398099603F0279603E43E9603002B9603081996033C09960394279603AC189603883E
1004
4B4559505200505400008E03010000000C0B78013020202020202020202020205F494E20290A0000002E040000000000000E6D02C0026D02400E6D0264026D0208026D02AC016D0250016D02F4006D0298006D023C00
1004
4B4559505200505400008E03010000000C0B78013020202020202020202020205F494E20290A0000002E04000000000000026D02400E6D0264026D0208026D02AC016D0250016D02F4006D0298006D023C006D02701F
1004
4B455950524F540000008E03010000000C0B78013020202020202020202020205F494E20290A0000002E04000000000000076D0290126D02B4066D0234126D0258066D02D8116D02FC056D027C116D02A0056D022011
1004
4B455950524F540000008E03010000000C0B78013020202020202020202020205F494E20290A0000002E04000000000000126D02B4066D0234126D0258066D02D8116D02FC056D027C116D02A0056D0220116D024405
1004
4B4559505800505400008E03010000000C0B78013020202020202020202020205F494E20290A0000002E040000000000002D6D02AC0B6D028C176D02A80A6D0230176D024C0A6D02D4166D02F0096D0278166D029409
1004
4B4559505800505400008E03010000000C0B78013020202020202020202020205F494E20290A0000002E040000000000000B6D028C176D02A80A6D0230176D024C0A6D02D4166D02F0096D0278166D0294096D021C16
1004
4B4559505900505400008E03010000000C0B78013020202020202020202020205F494E20290A0000002E0400000000000009AF021009AF028808AF02FC07AF026C07AF02D806AF024006AF02A405AF020405AF026004
1004
4B4559505900505400008E03010000000C0B78013020202020202020202020205F494E20290A0000002E0400000000000009AF028808AF02FC07AF026C07AF02D806AF024006AF02A405AF020405AF026004AF02B803
1004
4B4559524144005400008E03010000000C0B7801312E302020202020202020205F535220290A00000010040000000000000000F03F02011A18162412101E2C1E02200E08FCFD004EF40232036E289603921D96031816
1004
4B4559524144005400008E03010000000C0B7801312E302020202020202020205F535220290A00000010040000000000000000F03F012500000000008B13000000000000000000000000000000000000000000000000
1004
4B4559524400005400008E03010000000C0B78013020202020202020202020205F494E20290A0000002E0400000000000002480114026E0E08FCFD008C029A036E2896036E1D9603301216281A2C1E2002640129025E
1004
4B4559524400005400008E03010000000C0B78013020202020202020202020205F494E20290A0000002E0400000000000011E53F0000000000000000529B38B9DF11E5BF529B38B9DF11D53F0000000000000000529B
1004
4B4559524F54005400008E03010000000C0B7801302E302020202020202020205F535220290A0000001004000000000000000000001E2C1A0254012702506C0E08FCFD003802EE03CA3A9603F63F96034402E2035E28
1004
4B4559524F54005400008E03010000000C0B7801302E302020202020202020205F535220290A000000100400000000000000000000000000529B38B9DF11D53F529B38B9DF11E53F0000000000000000000000000000
1004
4B4559545950450000008E03010000000C0B78013120202020202020202020205F494E20290A0000002E04000001000000000000000000000000000000000000000000000000000000000000529B38B9DF11E53F0000
1004
4B4559545950450000008E03010000000C0B78013120202020202020202020205F494E20290A0000002E040000010000001C96032416281A2C1E02180142024D0E08FCFD00014A04763A9603F63F9603E8013E04F211
1004
4B4559584C00505400008E03010000000C0B7801302E352020202020202020205F535220290A00000010040000000000000000E03F119603221C9603021E1901301E1C1A38021F1C500E08FCFD009E041E3A9603F63F
1004
4B4559584C00505400008E03010000000C0B7801302E352020202020202020205F535220290A00000010040000000000000000E03F069603362396038400B506D8009A00002020200000000000000000000000000000
1004
4B4559594C00505400008E03010000000C0B7801302E323520202020202020205F535220290A00000010040000000000000000D03F012500000000008913000000000000E03F00000000000000000000000000000000
1004
4B4559594C00505400008E03010000000C0B7801302E323520202020202020205F535220290A00000010040000000000000000D03F359603F63F96031C010E09123A9603C21B96032C1E3002030208FB0A0121022908
1004
6B66616300686B0000008E03010000000C0B780133332E333333332020202020202020205F5352200010040000DFE00B93A9AA4040122500000000008913000000000000D03F00000000000000000000000000000000
1004
6B66616300686B0000008E03010000000C0B780133332E333333332020202020202020205F5352200010040000DFE00B93A9AA40400B96030C029603640B9603B0019603080B960354019603AC0A9603F8009603EC29
1004
4C6472746F67676C65008E03010000000C0B7801225461626C65002020202020202020205F53545200E80300005461626C65002020202020202020205F535452290A000000007801F4DCA400A42C8E03CE510078A800
1004
4C6472746F67676C65008E03010000000C0B7801225461626C65002020202020202020205F53545200E80300005461626C65002020202020202020205F535452290A000000007801F4DCA400A42C8E03CE510078A800
1004
6C6F726E0045430000008E03010000000C0B7801312020202020202020202020205F494E20290A00002E04000001000000007609B8002500000000008913DFE00B93A9AA404000000000000000000000000000000000
1004
6C6F726E0045430000008E03010000000C0B7801312020202020202020202020205F494E20290A00002E0400000100000025960310109603CC079603BC24960370079603B40F960314079603580F9603001F9603FC0E
1004
6D61745F74686B0000008E03010000000C0B7801302E303632202020202020202020205F5352202900100400005839B4C876BEAF3F0D9603901D9603300D9603341D9603D40C9603D81C9603F4110D005461626C6500
1004
6D61745F74686B0000008E03010000000C0B7801302E303632202020202020202020205F5352202900100400005839B4C876BEAF3F012500000000008B13010000000000000000000000000000000000000000000000
1004
6D6174657269616C00008E03010000000C0B780122535445454C2D302E323020434152424F4E284D00E8030000535445454C2D302E323020434152424F4E284D494C442900205F535452290A00000000000000000000
1004
6D6174657269616C00008E03010000000C0B780122535445454C2D302E323020434152424F4E284D00E8030000535445454C2D302E323020434152424F4E284D494C442900205F535452290A00000000000000000000
1004
6D6574726963000000008E03010000000C0B7801226E00202020202020202020205F535452290A0000E80300006E00202020202020202020205F535452290A000000000000205F535452290A00000000000000000000
1004
6D6574726963000000008E03010000000C0B7801226E00202020202020202020205F535452290A0000E80300006E00202020202020202020205F535452290A000000000000205F535452290A00000000000000000000
1004
4E4348414C00480000008E03010000000C0B7801312E302020202020202020205F535220290A00000010040000000000000000F03F116D02FC056D027C116D02A0056D0220116D0244056D02C4106D02E8046D026810
1004
4E4348414C00480000008E03010000000C0B7801312E302020202020202020205F535220290A00000010040000000000000000F03F2596031010960388111D00535445454C2D302E3230204398110D006E004D494C44
1004
4E4348424C00480000008E03010000000C0B7801312E302020202020202020205F535220290A00000010040000000000000000F03F18162412102E0244016C022064011A02105C0E08FCFD0084005E0406019603F63F
1004
4E4348424C00480000008E03010000000C0B7801312E302020202020202020205F535220290A00000010040000000000000000F03F0A6D02D4166D02F0096D0278166D0294096D021C166D02500B6D0238096D02DC08
1004
4E4348444C00480000008E03010000000C0B7801312E302020202020202020205F535220290A00000010040000000000000000F03F106D028C046D020C106D0230046D02B00F6D02D4036D02540F6D0278036D02F80E
1004
4E4348444C00480000008E03010000000C0B7801312E302020202020202020205F535220290A00000010040000000000000000F03F012500000000008913000000000000F03F00000000000000000000000000000000
1004
4E4348494C00480000008E03010000000C0B780139302E3020202020202020205F535220290A00000010040000000000000080564001AF02F000AF024C01AF029000AF02042E6D029C3F6D027C1D6D02403F6D02201D
1004
4E4348494C00480000008E03010000000C0B780139302E3020202020202020205F535220290A000000100400000000000000805640086D025C146D0280086D0200146D0224086D02A4136D02C8076D0248136D026C07
1004
4E43484D4554480000008E03010000000C0B78013120202020202020202020205F494E20290A0000002E040000010000003E960324112500000000008913000000000080564000000000000000000000000000000000
1004
4E43484D4554480000008E03010000000C0B78013120202020202020202020205F494E20290A0000002E04000001000000026D0208026D02AC016D0250016D02F4006D0298006D023C006D02701FA202141FA202501D
1004
4E4348504100005400008E03010000000C0B78013020202020202020202020205F494E20290A0000002E040000000000003D9603681B96033C1596039029960334299603D82896037C289603BC3C9603603C9603043C
1004
4E4348504100005400008E03010000000C0B78013020202020202020202020205F494E20290A0000002E04000000000000126D0258066D02D8116D02FC056D027C116D02A0056D0220116D0244056D02C4106D02E804
1002
}
  0
ATTDEF
  5
27
330
14
100
AcDbEntity
  8
BORDER
 62
     7
100
AcDbText
 10
7.336459627298376
 20
1.098131118643972
 30
0.0
 40
0.1053491
  1

 72
     1
 11
7.336459627298376
 21
1.098131118643972
 31
0.0
100
AcDbAttributeDefinition
  3
Drawn by/Date
  2
NAM/DATE
 70
     0
280
     0
  0
ATTDEF
  5
28
330
14
100
AcDbEntity
  8
BORDER
 62
     7
100
AcDbText
 10
6.870826058984077
 20
1.454460378629804
 30
0.0
 40
0.05267455
  1

 72
     1
 11
6.870826058984077
 21
1.454460378629804
 31
0.0
100
AcDbAttributeDefinition
  3
Revision Letter
  2
REV
 70
     0
280
     0
  0
ATTDEF
  5
29
330
14
100
AcDbEntity
  8
BORDER
 62
     7
100
AcDbText
 10
7.217574451017669
 20
1.454460378629804
 30
0.0
 40
0.05267455
  1

 72
     1
 11
7.217574451017669
 21
1.454460378629804
 31
0.0
100
AcDbAttributeDefinition
  3
Revision Date
  2
REV/DT.
 70
     0
280
     0
  0
ATTDEF
  5
2A
330
14
100
AcDbEntity
  8
BORDER
 62
     7
100
AcDbText
 10
7.712929345135449
 20
1.454460378629804
 30
0.0
 40
0.05267455
  1

 72
     1
 11
7.712929345135449
 21
1.454460378629804
 31
0.0
100
AcDbAttributeDefinition
  3
Revision Name
  2
REV/NAM
 70
     0
280
     0
  0
INSERT
  5
2B
330
14
100
AcDbEntity
  8
SSINFO_FRZ
  6
Continuous
100
AcDbBlockReference
  2
_PUN112SSJYHX_NIL
 10
9.172748168470683
 20
4.015160931376907
 30
0.0
1001
_PUN112SSJYHX
1002
{
1004
76657273696F6E004572726F723A204D656D6F727920416C6C6F636174696F6E20696E205353434F00E803000031345F316200000031325F316100000076657273696F6E000A44656661756C74696E67202573207400
1002
}
  0
INSERT
  5
2C
330
14
100
AcDbEntity
  8
SSINFO_FRZ
100
AcDbBlockReference
  2
_DES112SSJYHX1_NIL
 10
0.0
 20
0.0
 30
0.0
1001
_DES112SSJYHX
1002
{
1004
4E4348504200005400008E03010000000C0B78013020202020202020202020205F494E20290A0000002E040000000000000A5D00740C2500000000008B13000000000000000000000000000000000000000000000000
1004
4E4348504200005400008E03010000000C0B78013020202020202020202020205F494E20290A0000002E040000000000000A5D004E4348444C004800000000001D97F7BF7742F7BF312E302020202020202020205F53
1004
4E4348504400005400008E03010000000C0B78013020202020202020202020205F494E20290A0000002E04000000000000202020202020205F494E20290A0000002E040000010000AC0B2500000000008B1300000000
1004
4E4348504400005400008E03010000000C0B78013020202020202020202020205F494E20290A0000002E04000000000000008E03010000000C0B7801302E3130A4095D00180C2500000000008B130000000000000000
1004
4E4348504900005400008E03010000000C0B78013020202020202020202020205F494E20290A0000002E0400000000000020202020205F535452290A00E803000053494445002020202020203C0B2500000000008B13
1004
4E4348504900005400008E03010000000C0B78013020202020202020202020205F494E20290A0000002E040000000000004348574C004800000000001D97F7BF7742F7BF302E30202020202020202020C80A25000000
1004
4E4348505200005400008E03010000000C0B78013020202020202020202020205F494E20290A0000002E040000000000001D0C02201D0C026C1C0C02B41B0C02101C0C02541B0C02F01A0C02941A0C02C0190C026419
1004
4E4348505200005400008E03010000000C0B78013020202020202020202020205F494E20290A0000002E040000000000000FAF02B40EAF02580EAF02FC0DAF02A00DAF02440DAF02E80CAF02E8005D0052435449500A
1004
4E4348505700005400008E03010000000C0B78013020202020202020202020205F494E20290A0000002E04000000000000494E20290A0000002E04000000000000000000000000000000000000000000000000000000
1004
4E4348505700005400008E03010000000C0B78013020202020202020202020205F494E20290A0000002E040000000000000000000000000038065D004E4348524C004800000000001D97F7BF7742F7BF302E32352020
1004
4E4348524C00480000008E03010000000C0B7801302E323520202020202020205F535220290A00000010040000000000000000D03F0A0000002E04000001000000E8030000416C6C0020202020202020202020205F53
1004
4E4348524C00480000008E03010000000C0B7801302E323520202020202020205F535220290A00000010040000000000000000D03F0000000C0B78012272656424055D004F425250524F5400000000001D97F7BF7742
1004
4E4348545950000000008E03010000000C0B780122534944450020202020202020205F535452290A00E8030000534944450020202020202020205F535452290A0000000000007801F4DCA400A42C8E03CE510078A800
1004
4E4348545950000000008E03010000000C0B780122534944450020202020202020205F535452290A00E8030000534944450020202020202020205F535452290A0000000000007801F4DCA400A42C8E03CE510078A800
1004
4E4348574C00480000008E03010000000C0B7801302E302020202020202020205F535220290A000000100400000000000000000000206973206E6F7420706C616E20746F205543532E20436F6D6D616E001004000000
1004
4E4348574C00480000008E03010000000C0B7801302E302020202020202020205F535220290A000000100400000000000000000000007801F4DCA40058035D004F4252584C004500000000001D97F7BF7742F7BF312E
1004
4F4252494E53505400008E03010000000C0B78013120202020202020202020205F494E20290A0000002E0400000100000010AF02C80FAF026C0FAF02100FAF02B40EAF02580EAF02FC0DAF02A00DAF02440DAF02E80C
1004
4F4252494E53505400008E03010000000C0B78013120202020202020202020205F494E20290A0000002E04000001000000202020202020205F53545200E80300007068616E00202020202020202020205F535452290A
1004
4F425250524F540000008E03010000000C0B78013020202020202020202020205F494E20290A0000002E0400000000000000AF02F63FAF021402DE017A09AF02F63FAF020000D2011A00AF027A09AF02000000000000
1004
4F425250524F540000008E03010000000C0B78013020202020202020202020205F494E20290A0000002E04000000000000240C0214240C02B8230C025C230C0200230C02A4220C0218220C02BC210C0260210C020421
1004
4F4252505800505400008E03010000000C0B78013020202020202020202020205F494E20290A0000002E04000000000000000054000000001D97F7BF7742F7BF3020202020202020202020205F494E20290A0000002E
1004
4F4252505800505400008E03010000000C0B78013020202020202020202020205F494E20290A0000002E04000000000000005054000000001D97F7BF7742F7BF3020202020202020202020205F494E20290A0000002E
1004
4F4252505900505400008E03010000000C0B78013020202020202020202020205F494E20290A0000002E0400000000000006AF024006AF02A405AF020405AF026004AF02B803AF020C03AF025C02AF02A801AF02F000
1004
4F4252505900505400008E03010000000C0B78013020202020202020202020205F494E20290A0000002E0400000000000006AF024006AF02A405AF020405AF026004AF02B803AF020C03AF025C02AF02A801AF02F000
1004
4F4252524F54000000008E03010000000C0B7801302E302020202020202020205F535220290A000000100400000000000000000000002500000000008B13000000000000000000000000000000000000000000000000
1004
4F4252524F54000000008E03010000000C0B7801302E302020202020202020205F535220290A000000100400000000000000000000002600BE2D6D02E63F6D026D020000FFFFFFFF0000000068000D0040639A00F42F
1004
4F4252545950450000008E03010000000C0B78013120202020202020202020205F494E20290A0000002E040000010000000000E03F002500000000008B13000000000000000000000000000000000000000000000000
1004
4F4252545950450000008E03010000000C0B78013120202020202020202020205F494E20290A0000002E0400000100000005AF026004AF02B803AF020C03AF025C02AF02A801AF02F000AF024C01AF029000AF02042E
1004
4F4252584C00450000008E03010000000C0B7801312E302020202020202020205F535220290A00000010040000000000000000F03F00000001000000000000006007A8038C005D005243545094006900B40CAF02580C
1004
4F4252584C00450000008E03010000000C0B7801312E302020202020202020205F535220290A00000010040000000000000000F03F002500000000008B13010000000000000000000000000000000000000000000000
1004
4F4252594C00450000008E03010000000C0B7801302E352020202020202020205F535220290A00000010040000000000000000E03F01AF029000AF02042E6D029C3F6D027C1D6D02403F6D02201D6D02AC2F6D02782D
1004
4F4252594C00450000008E03010000000C0B7801302E352020202020202020205F535220290A00000010040000000000000000E03F00AF024C01AF029000AF02042E6D029C3F6D027C1D6D02403F6D02201D6D02AC2F
1004
7068615F636F6C6F72008E03010000000C0B7801226D6167656E746100202020202020205F53545200E80300006D6167656E746100202020202020205F535452290A000000007801F4DCA400A42C8E03CE510078A800
1004
7068615F636F6C6F72008E03010000000C0B7801226D6167656E746100202020202020205F53545200E80300006D6167656E746100202020202020205F535452290A000000007801F4DCA400A42C8E03CE510078A800
1004
7068615F6C61796572008E03010000000C0B7801227068616E00202020202020202020205F53545200E80300007068616E00202020202020202020205F535452290A000000007801F4DCA400A42C8E03CE510078A800
1004
7068615F6C61796572008E03010000000C0B7801227068616E00202020202020202020205F53545200E80300007068616E00202020202020202020205F535452290A000000007801F4DCA400A42C8E03CE510078A800
1004
524354494E53505400008E03010000000C0B78013120202020202020202020205F494E20290A0000002E04000001000000006602000066020300B2020200AF02C8005D007461705F73697A65000000001D97F7BF7742
1004
524354494E53505400008E03010000000C0B78013120202020202020202020205F494E20290A0000002E0400000100000062000000616E676C650000007377617000000000E467C5028066C202D02EC602A067C20200
1004
52435450524F540065008E03010000000C0B78013020202020202020202020205F494E20290A0000002E04000000000000000000000500000001000000000C026C005D007468645F636F6C6F720000001D97F7BF7742
1004
52435450524F540065008E03010000000C0B78013020202020202020202020205F494E20290A0000002E04000000000000130000E8072500EC07210000000000000000000000000000000000000000005C0000000100
1004
524354505800676C65008E03010000000C0B78013020202020202020202020205F494E20290A0000002E040000000000000B6D028C176D02A80A6D0230176D024C0A6D02D4166D02F0096D0278166D0294096D021C16
1004
524354505800676C65008E03010000000C0B78013020202020202020202020205F494E20290A0000002E04000000000000130000000000000000000000000000000000000000000000000000A4075D00415243524400
1004
524354505859006C65008E03010000000C0B78013020202020202020202020205F494E20290A0000002E04000000000000176D02A80A6D0230176D024C0A6D02D4166D02F0096D0278166D0294096D021C166D02500B
1004
524354505859006C65008E03010000000C0B78013020202020202020202020205F494E20290A0000002E0400000000000008AF02FC07AF026C07AF02D806AF024006AF02A405AF020405AF026004AF02B803AF020C03
1004
524354505900676C65008E03010000000C0B78013020202020202020202020205F494E20290A0000002E04000000000000015D00524543544F47474C450000001D97F7BF7742F7BF224F757473696465002020202020
1004
524354505900676C65008E03010000000C0B78013020202020202020202020205F494E20290A0000002E04000000000000DCA400A42C8E03CE510078A8000000D8055D00436E74746F67676C65008E03010000000C0B
1004
524354524F54005400008E03010000000C0B7801302E302020202020202020205F535220290A00000010040000000000000000000000000000000000000000007C055D006374725F636F6C6F72008E03010000000C0B
1004
524354524F54005400008E03010000000C0B7801302E302020202020202020205F535220290A000000100400000000000000000000705F6772617600000000001D97F7BF7742F7BF302E323833342020202020202020
1004
526374746F67676C65008E03010000000C0B7801224E6F002020202020202020202020205F53545200E80300004E6F002020202020202020202020205F535452290A000000007801F4DCA400A42C8E03CE510078A800
1004
526374746F67676C65008E03010000000C0B7801224E6F002020202020202020202020205F53545200E80300004E6F002020202020202020202020205F535452290A000000007801F4DCA400A42C8E03CE510078A800
1004
524354584C00505400008E03010000000C0B7801312E302020202020202020205F535220290A00000010040000000000000000F03F190C02381A0C02AC180C02B0170C0254170C02F8160C029C160C0240160C02E415
1004
524354584C00505400008E03010000000C0B7801312E302020202020202020205F535220290A00000010040000000000000000F03F2C8E03CE510078A8000000C4045D006374725F6C61796572008E03010000000C0B
1004
524354594C00505400008E03010000000C0B7801312E302020202020202020205F535220290A00000010040000000000000000F03F2C8E03CE510078A800000068045D006374725F6C6E7300700C8E03010000000C0B
1004
524354594C00505400008E03010000000C0B7801312E302020202020202020205F535220290A00000010040000000000000000F03F166D0238046D027C096D026A09B6043E2F6D022A0E6D02BC210C0260210C020421
1004
524543544F47474C45008E03010000000C0B7801224F75747369646500202020202020205F53545200E80300004F75747369646500202020202020205F535452290A000000007801F4DCA400A42C8E03CE510078A800
1004
524543544F47474C45008E03010000000C0B7801224F75747369646500202020202020205F53545200E80300004F75747369646500202020202020205F535452290A000000007801F4DCA400A42C8E03CE510078A800
1004
524E44494E53505400008E03010000000C0B78013020202020202020202020205F494E20290A0000002E040000000000000CAF028C0CAF02300CAF02D40BAF02780BAF027801AF021C01AF022009AF02C000AF02C408
1004
524E44494E53505400008E03010000000C0B78013020202020202020202020205F494E20290A0000002E04000000000000000000000000000000000000000000B0035D0044484F4C4550524F54008E03010000000C0B
1004
524E44505200450000008E03010000000C0B78013020202020202020202020205F494E20290A0000002E04000000000000160C029C160C0240160C02E4150C0288150C022C150C023002AF024C12AF02D401AF02F011
1004
524E44505200450000008E03010000000C0B78013020202020202020202020205F494E20290A0000002E04000000000000126D0278126D021C126D02DC0F6D0254035D0044484F4C4550580045008E03010000000C0B
1004
524E44524144005400008E03010000000C0B7801302E353020202020202020205F535220290A00000010040000000000000000E03F210C0260210C0204210C0268200C02C81F0C02241F0C027C1E0C02D01D0C02201D
1004
524E44524144005400008E03010000000C0B7801302E353020202020202020205F535220290A00000010040000000000000000E03F000000000000000000000088015D0044484F4C4552440054008E03010000000C0B
1004
524E44524400005400008E03010000000C0B78013020202020202020202020205F494E20290A0000002E0400000000000010040000000000000000D43F000000000000000000000074055D004B455952414400540000
1004
524E44524400005400008E03010000000C0B78013020202020202020202020205F494E20290A0000002E0400000000000000000020010D0064696D006E0000002C015D0044484F4C45584C0054008E03010000000C0B
1004
736865617200650000008E03010000000C0B780135303030302E302020202020202020205F535220001004000000000000006AE840000000000017F140056D02F63F6D0214050E0018055D004B455952440000540000
1004
736865617200650000008E03010000000C0B780135303030302E302020202020202020205F535220001004000000000000006AE8402C8E03CE510078A8000000D0005D0044494D505245430000008E03010000000C0B
1004
73705F677261760000008E03010000000C0B7801302E323833342020202020202020205F535220290010040000FAEDEBC03923D23F7468640020202020202020202020205F535452290A0000E0F9FBBF000066020000
1004
73705F677261760000008E03010000000C0B7801302E323833342020202020202020205F535220290010040000FAEDEBC03923D23F2C8E03CE510078A8000C0274005D006631306B65790001700C8E03010000000C0B
1004
73735F667564676500008E03010000000C0B7801302E303030303031202020202020205F53522029001004000048AFBC9AF2D77A3E414345004234000100000018005D0066356B6579000001700C8E03010000000C0B
1004
73735F667564676500008E03010000000C0B7801302E303030303031202020202020205F53522029001004000048AFBC9AF2D77A3E626C75650077000000000000000000000000000000000000000000000000000000
1004
7461705F6472696C6C008E03010000000C0B7801302E333132352020202020202020205F535220290010040000000000000000D43F000000F4032900F8033E006A046D02F63F6D0204045D004B4559584C0050541004
1004
7461705F6472696C6C008E03010000000C0B7801302E333132352020202020202020205F535220290010040000000000000000D43F008E03010000000C0B78013020202020202020202020205F494E20290A0000002E
1004
7461705F73697A6500008E03010000000C0B7801302E333735302020202020202020205F535220290010040000000000000000D83F008E03010000000C0B7801302E302020202020202020205F535220290A00000010
1004
7461705F73697A6500008E03010000000C0B7801302E333735302020202020202020205F535220290010040000000000000000D83F036D02F63F6D0274001D000000000000000000A8035D004B4559594C0050540000
1004
74656E73696C650000008E03010000000C0B780137303030302E302020202020202020205F5352200010040000000000000017F140008E03010000000C0B7801312E302020202020202020205F535220290A00000010
1004
74656E73696C650000008E03010000000C0B780137303030302E302020202020202020205F5352200010040000000000000017F140007801F4DCA400A42C8E03CE510078A80056004C035D006B66616300686B000000
1004
7468645F636F6C6F72008E03010000000C0B780122626C756500202020202020202020205F53545200E8030000626C756500202020202020202020205F535452290A000000007801F4DCA400A42C8E03CE510078A800
1004
7468645F636F6C6F72008E03010000000C0B780122626C756500202020202020202020205F53545200E8030000626C756500202020202020202020205F535452290A000000007801F4DCA400A42C8E03CE510078A800
1004
7468645F6C61796572008E03010000000C0B7801227468640020202020202020202020205F53545200E80300007468640020202020202020202020205F535452290A000000007801F4DCA400A42C8E03CE510078A800
1004
7468645F6C61796572008E03010000000C0B7801227468640020202020202020202020205F53545200E80300007468640020202020202020202020205F535452290A000000007801F4DCA400A42C8E03CE510078A800
1004
76657273696F6E004572726F723A204D656D6F727920416C6C6F636174696F6E20696E205353434F00E803000031345F3162000000616E676C650000007377617000000000E467C1021066BE02D02EC2023067BE0200
1004
76657273696F6E004572726F723A204D656D6F727920416C6C6F636174696F6E20696E205353434F00E803000031345F3162000000616E676C650000007377617000000000E467C1021066BE02D02EC2023067BE0200
1004
77696E5F636F6C6F720000005F64657331313253534A59485800000077696E5F6C6179657200000000E8030000626C756500770000000000000000000000000000000000000000000000000000000000000000000000
1004
77696E5F636F6C6F720000005F64657331313253534A59485800000077696E5F6C6179657200000000E8030000626C756500770000000000000000000000000000000000000000000000000000000000000000000000
1004
77696E5F6C617965720000005F7A6F6F6D0000005F616C6C000000005F647669657700005F6C000000E80300007373635F77696E646F7773000000000000000000000000000000000000000000050000000100000000
1004
77696E5F6C617965720000005F7A6F6F6D0000005F616C6C000000005F647669657700005F6C000000E80300007373635F77696E646F7773000000000000000000000000000000000000000000050000000100000000
1002
}
  0
ENDBLK
  5
31
330
14
100
AcDbEntity
  8
0
100
AcDbBlockEnd
  0
BLOCK
  5
F7
330
F4
100
AcDbEntity
  8
0
100
AcDbBlockBegin
  2
ABOARD_P
 70
     0
 10
0.0
 20
0.0
 30
0.0
  3
ABOARD_P
  1
G:\acad\sy\aboard_p.dwg
  0
ENDBLK
  5
F8
330
F4
100
AcDbEntity
  8
0
100
AcDbBlockEnd
  0
ENDSEC
  0
SECTION
  2
ENTITIES
  0
MTEXT
  5
3
330
2
100
AcDbEntity
  8
0
  6
Continuous
100
AcDbMText
 10
8.837253973492465
 20
44.5964389374387
 30
0.0
 40
0.2
 41
3.366865526589492
 46
0.0
 71
     1
 72
     5
  1

 73
     1
 44
1.0
  0
INSERT
  5
7
330
2
100
AcDbEntity
  8
0
100
AcDbBlockReference
 66
     1
  2
BRDA4ATT
 10
0.0
 20
0.0
 30
0.0
  0
ATTRIB
  5
8
330
7
100
AcDbEntity
  8
BORDER
 62
     7
100
AcDbText
 10
4.6900365829
 20
0.7555637452
 30
0.0
 40
0.12641892
  1

 72
     1
 11
4.6900365829
 21
0.7555637452
 31
0.0
100
AcDbAttribute
  2
DEALNAM
 70
     0
280
     0
  0
ATTRIB
  5
A
330
7
100
AcDbEntity
  8
BORDER
 62
     7
100
AcDbText
 10
4.6900365829
 20
0.4051418632866526
 30
0.0
 40
0.12641892
  1

 72
     1
 11
4.6900365829
 21
0.4051418632866526
 31
0.0
100
AcDbAttribute
  2
JOBNAM
 70
     0
280
     0
  0
ATTRIB
  5
B
330
7
100
AcDbEntity
  8
BORDER
 62
     7
100
AcDbText
 10
4.6900365829
 20
0.054755309276258
 30
0.0
 40
0.12641892
  1

 72
     1
 11
4.6900365829
 21
0.054755309276258
 31
0.0
100
AcDbAttribute
  2
DESCRIP
 70
     0
280
     0
  0
ATTRIB
  5
C
330
7
100
AcDbEntity
  8
BORDER
 62
     7
100
AcDbText
 10
7.394205647349133
 20
0.7555637452
 30
0.0
 40
0.12641892
  1

 72
     1
 11
7.394205647349133
 21
0.7555637452
 31
0.0
100
AcDbAttribute
  2
SONUM
 70
     0
280
     0
  0
ATTRIB
  5
D
330
7
100
AcDbEntity
  8
BORDER
 62
     7
100
AcDbText
 10
6.757394906431883
 20
0.4051418632866526
 30
0.0
 40
0.12641892
  1

 72
     1
 11
6.757394906431883
 21
0.4051418632866526
 31
0.0
100
AcDbAttribute
  2
ITEMNUM
 70
     0
280
     0
  0
ATTRIB
  5
E
330
7
100
AcDbEntity
  8
BORDER
 62
     7
100
AcDbText
 10
7.588017634051459
 20
0.4051418632866526
 30
0.0
 40
0.12641892
  1

 72
     1
 11
7.588017634051459
 21
0.4051418632866526
 31
0.0
100
AcDbAttribute
  2
QTY
 70
     0
280
     0
  0
ATTRIB
  5
F
330
7
100
AcDbEntity
  8
BORDER
 62
     7
100
AcDbText
 10
7.218851991435335
 20
0.054755309276258
 30
0.0
 40
0.12641892
  1

 72
     1
 11
7.218851991435335
 21
0.054755309276258
 31
0.0
100
AcDbAttribute
  2
DRAWNUM
 70
     0
280
     0
  0
ATTRIB
  5
10
330
7
100
AcDbEntity
  8
BORDER
 62
     7
100
AcDbText
 10
7.336459627298376
 20
1.098131118643972
 30
0.0
 40
0.1053491
  1

 72
     1
 11
7.336459627298376
 21
1.098131118643972
 31
0.0
100
AcDbAttribute
  2
NAM/DATE
 70
     0
280
     0
  0
ATTRIB
  5
11
330
7
100
AcDbEntity
  8
BORDER
 62
     7
100
AcDbText
 10
6.870826058984077
 20
1.454460378629804
 30
0.0
 40
0.05267455
  1

 72
     1
 11
6.870826058984077
 21
1.454460378629804
 31
0.0
100
AcDbAttribute
  2
REV
 70
     0
280
     0
  0
ATTRIB
  5
12
330
7
100
AcDbEntity
  8
BORDER
 62
     7
100
AcDbText
 10
7.217574451017669
 20
1.454460378629804
 30
0.0
 40
0.05267455
  1

 72
     1
 11
7.217574451017669
 21
1.454460378629804
 31
0.0
100
AcDbAttribute
  2
REV/DT.
 70
     0
280
     0
  0
ATTRIB
  5
13
330
7
100
AcDbEntity
  8
BORDER
 62
     7
100
AcDbText
 10
7.712929345135449
 20
1.454460378629804
 30
0.0
 40
0.05267455
  1

 72
     1
 11
7.712929345135449
 21
1.454460378629804
 31
0.0
100
AcDbAttribute
  2
REV/NAM
 70
     0
280
     0
  0
SEQEND
  5
32
330
7
100
AcDbEntity
  8
0
  0
MTEXT
  5
D6
330
2
100
AcDbEntity
  8
0
  6
Continuous
100
AcDbMText
 10
99.00016192244732
 20
50.47334841657448
 30
0.0
 40
0.2
 41
3.366865526589492
 46
0.0
 71
     1
 72
     5
  1

 73
     1
 44
1.0
  0
INSERT
  5
D7
330
2
100
AcDbEntity
  8
0
100
AcDbBlockReference
 66
     1
  2
BRDA4ATT
 10
90.16290794895486
 20
5.876909479135775
 30
0.0
  0
ATTRIB
  5
D8
330
D7
100
AcDbEntity
  8
BORDER
 62
     7
100
AcDbText
 10
94.85294453185487
 20
6.632473224335775
 30
0.0
 40
0.12641892
  1

 72
     1
 11
94.85294453185487
 21
6.632473224335775
 31
0.0
100
AcDbAttribute
  2
DEALNAM
 70
     0
280
     0
  0
ATTRIB
  5
D9
330
D7
100
AcDbEntity
  8
BORDER
 62
     7
100
AcDbText
 10
94.85294453185487
 20
6.282051342422428
 30
0.0
 40
0.12641892
  1

 72
     1
 11
94.85294453185487
 21
6.282051342422428
 31
0.0
100
AcDbAttribute
  2
JOBNAM
 70
     0
280
     0
  0
ATTRIB
  5
DA
330
D7
100
AcDbEntity
  8
BORDER
 62
     7
100
AcDbText
 10
94.85294453185487
 20
5.931664788412033
 30
0.0
 40
0.12641892
  1

 72
     1
 11
94.85294453185487
 21
5.931664788412033
 31
0.0
100
AcDbAttribute
  2
DESCRIP
 70
     0
280
     0
  0
ATTRIB
  5
DB
330
D7
100
AcDbEntity
  8
BORDER
 62
     7
100
AcDbText
 10
97.55711359630399
 20
6.632473224335775
 30
0.0
 40
0.12641892
  1

 72
     1
 11
97.55711359630399
 21
6.632473224335775
 31
0.0
100
AcDbAttribute
  2
SONUM
 70
     0
280
     0
  0
ATTRIB
  5
DC
330
D7
100
AcDbEntity
  8
BORDER
 62
     7
100
AcDbText
 10
96.92030285538674
 20
6.282051342422428
 30
0.0
 40
0.12641892
  1

 72
     1
 11
96.92030285538674
 21
6.282051342422428
 31
0.0
100
AcDbAttribute
  2
ITEMNUM
 70
     0
280
     0
  0
ATTRIB
  5
DD
330
D7
100
AcDbEntity
  8
BORDER
 62
     7
100
AcDbText
 10
97.75092558300631
 20
6.282051342422428
 30
0.0
 40
0.12641892
  1

 72
     1
 11
97.75092558300631
 21
6.282051342422428
 31
0.0
100
AcDbAttribute
  2
QTY
 70
     0
280
     0
  0
ATTRIB
  5
DE
330
D7
100
AcDbEntity
  8
BORDER
 62
     7
100
AcDbText
 10
97.38175994039018
 20
5.931664788412033
 30
0.0
 40
0.12641892
  1

 72
     1
 11
97.38175994039018
 21
5.931664788412033
 31
0.0
100
AcDbAttribute
  2
DRAWNUM
 70
     0
280
     0
  0
ATTRIB
  5
DF
330
D7
100
AcDbEntity
  8
BORDER
 62
     7
100
AcDbText
 10
97.49936757625324
 20
6.975040597779749
 30
0.0
 40
0.1053491
  1

 72
     1
 11
97.49936757625324
 21
6.975040597779749
 31
0.0
100
AcDbAttribute
  2
NAM/DATE
 70
     0
280
     0
  0
ATTRIB
  5
E0
330
D7
100
AcDbEntity
  8
BORDER
 62
     7
100
AcDbText
 10
97.03373400793893
 20
7.331369857765579
 30
0.0
 40
0.05267455
  1

 72
     1
 11
97.03373400793893
 21
7.331369857765579
 31
0.0
100
AcDbAttribute
  2
REV
 70
     0
280
     0
  0
ATTRIB
  5
E1
330
D7
100
AcDbEntity
  8
BORDER
 62
     7
100
AcDbText
 10
97.38048239997253
 20
7.331369857765579
 30
0.0
 40
0.05267455
  1

 72
     1
 11
97.38048239997253
 21
7.331369857765579
 31
0.0
100
AcDbAttribute
  2
REV/DT.
 70
     0
280
     0
  0
ATTRIB
  5
E2
330
D7
100
AcDbEntity
  8
BORDER
 62
     7
100
AcDbText
 10
97.8758372940903
 20
7.331369857765579
 30
0.0
 40
0.05267455
  1

 72
     1
 11
97.8758372940903
 21
7.331369857765579
 31
0.0
100
AcDbAttribute
  2
REV/NAM
 70
     0
280
     0
  0
SEQEND
  5
E3
330
D7
100
AcDbEntity
  8
0
  0
MTEXT
  5
F2
330
2
100
AcDbEntity
  8
0
  6
Continuous
100
AcDbMText
 10
177.85857922389
 20
79.51914683287395
 30
0.0
 40
0.2
 41
3.366865526589492
 46
0.0
 71
     1
 72
     5
  1

 73
     1
 44
1.0
  0
INSERT
  5
F3
330
2
100
AcDbEntity
  8
0
  6
Continuous
100
AcDbBlockReference
  2
ABOARD_P
 10
163.5955328302008
 20
28.41353375331424
 30
0.0
 41
3.5
 42
3.5
  0
MTEXT
  5
11D
330
2
100
AcDbEntity
  8
0
  6
Continuous
100
AcDbMText
 10
109.189969932665
 20
71.23316291356181
 30
0.0
 40
0.2
 41
3.366865526589492
 46
0.0
 71
     1
 72
     5
  1

 73
     1
 44
1.0
  0
INSERT
  5
11E
330
2
100
AcDbEntity
  8
0
100
AcDbBlockReference
 66
     1
  2
BRDA4ATT
 10
100.3527159591726
 20
26.63672397612311
 30
0.0
  0
ATTRIB
  5
11F
330
11E
100
AcDbEntity
  8
BORDER
 62
     7
100
AcDbText
 10
105.0427525420726
 20
27.39228772132311
 30
0.0
 40
0.12641892
  1

 72
     1
 11
105.0427525420726
 21
27.39228772132311
 31
0.0
100
AcDbAttribute
  2
DEALNAM
 70
     0
280
     0
  0
ATTRIB
  5
120
330
11E
100
AcDbEntity
  8
BORDER
 62
     7
100
AcDbText
 10
105.0427525420726
 20
27.04186583940976
 30
0.0
 40
0.12641892
  1

 72
     1
 11
105.0427525420726
 21
27.04186583940976
 31
0.0
100
AcDbAttribute
  2
JOBNAM
 70
     0
280
     0
  0
ATTRIB
  5
121
330
11E
100
AcDbEntity
  8
BORDER
 62
     7
100
AcDbText
 10
105.0427525420726
 20
26.69147928539937
 30
0.0
 40
0.12641892
  1

 72
     1
 11
105.0427525420726
 21
26.69147928539937
 31
0.0
100
AcDbAttribute
  2
DESCRIP
 70
     0
280
     0
  0
ATTRIB
  5
122
330
11E
100
AcDbEntity
  8
BORDER
 62
     7
100
AcDbText
 10
107.7469216065217
 20
27.39228772132311
 30
0.0
 40
0.12641892
  1

 72
     1
 11
107.7469216065217
 21
27.39228772132311
 31
0.0
100
AcDbAttribute
  2
SONUM
 70
     0
280
     0
  0
ATTRIB
  5
123
330
11E
100
AcDbEntity
  8
BORDER
 62
     7
100
AcDbText
 10
107.1101108656045
 20
27.04186583940976
 30
0.0
 40
0.12641892
  1

 72
     1
 11
107.1101108656045
 21
27.04186583940976
 31
0.0
100
AcDbAttribute
  2
ITEMNUM
 70
     0
280
     0
  0
ATTRIB
  5
124
330
11E
100
AcDbEntity
  8
BORDER
 62
     7
100
AcDbText
 10
107.940733593224
 20
27.04186583940976
 30
0.0
 40
0.12641892
  1

 72
     1
 11
107.940733593224
 21
27.04186583940976
 31
0.0
100
AcDbAttribute
  2
QTY
 70
     0
280
     0
  0
ATTRIB
  5
125
330
11E
100
AcDbEntity
  8
BORDER
 62
     7
100
AcDbText
 10
107.5715679506079
 20
26.69147928539937
 30
0.0
 40
0.12641892
  1

 72
     1
 11
107.5715679506079
 21
26.69147928539937
 31
0.0
100
AcDbAttribute
  2
DRAWNUM
 70
     0
280
     0
  0
ATTRIB
  5
126
330
11E
100
AcDbEntity
  8
BORDER
 62
     7
100
AcDbText
 10
107.689175586471
 20
27.73485509476708
 30
0.0
 40
0.1053491
  1

 72
     1
 11
107.689175586471
 21
27.73485509476708
 31
0.0
100
AcDbAttribute
  2
NAM/DATE
 70
     0
280
     0
  0
ATTRIB
  5
127
330
11E
100
AcDbEntity
  8
BORDER
 62
     7
100
AcDbText
 10
107.2235420181567
 20
28.09118435475291
 30
0.0
 40
0.05267455
  1

 72
     1
 11
107.2235420181567
 21
28.09118435475291
 31
0.0
100
AcDbAttribute
  2
REV
 70
     0
280
     0
  0
ATTRIB
  5
128
330
11E
100
AcDbEntity
  8
BORDER
 62
     7
100
AcDbText
 10
107.5702904101903
 20
28.09118435475291
 30
0.0
 40
0.05267455
  1

 72
     1
 11
107.5702904101903
 21
28.09118435475291
 31
0.0
100
AcDbAttribute
  2
REV/DT.
 70
     0
280
     0
  0
ATTRIB
  5
129
330
11E
100
AcDbEntity
  8
BORDER
 62
     7
100
AcDbText
 10
108.065645304308
 20
28.09118435475291
 30
0.0
 40
0.05267455
  1

 72
     1
 11
108.065645304308
 21
28.09118435475291
 31
0.0
100
AcDbAttribute
  2
REV/NAM
 70
     0
280
     0
  0
SEQEND
  5
12A
330
11E
100
AcDbEntity
  8
0
  0
MTEXT
  5
191
330
2
100
AcDbEntity
  8
0
  6
Continuous
100
AcDbMText
 10
188.0483872341077
 20
100.2789613298613
 30
0.0
 40
0.2
 41
3.366865526589492
 46
0.0
 71
     1
 72
     5
  1

 73
     1
 44
1.0
  0
INSERT
  5
192
330
2
100
AcDbEntity
  8
0
  6
Continuous
100
AcDbBlockReference
  2
ABOARD_P
 10
173.7853408404185
 20
49.17334825030157
 30
0.0
 41
3.5
 42
3.5
  0
MTEXT
  5
193
330
2
100
AcDbEntity
  8
0
  6
Continuous
100
AcDbMText
 10
196.1661659001777
 20
79.48162359389002
 30
0.0
 40
0.2
 41
3.366865526589492
 46
0.0
 71
     1
 72
     5
  1

 73
     1
 44
1.0
  0
INSERT
  5
194
330
2
100
AcDbEntity
  8
0
  6
Continuous
100
AcDbBlockReference
  2
ABOARD_P
 10
181.9031195064886
 20
28.3760105143303
 30
0.0
 41
3.5
 42
3.5
  0
MTEXT
  5
1B3
330
2
100
AcDbEntity
  8
0
  6
Continuous
100
AcDbMText
 10
108.2435226827961
 20
13.82216191173924
 30
0.0
 40
0.2
 41
3.366865526589492
 46
0.0
 71
     1
 72
     5
  1

 73
     1
 44
1.0
  0
INSERT
  5
1B4
330
2
100
AcDbEntity
  8
0
100
AcDbBlockReference
 66
     1
  2
BRDA4ATT
 10
99.40626870930362
 20
-30.77427702569946
 30
0.0
  0
ATTRIB
  5
1B5
330
1B4
100
AcDbEntity
  8
BORDER
 62
     7
100
AcDbText
 10
104.0963052922036
 20
-30.01871328049946
 30
0.0
 40
0.12641892
  1

 72
     1
 11
104.0963052922036
 21
-30.01871328049946
 31
0.0
100
AcDbAttribute
  2
DEALNAM
 70
     0
280
     0
  0
ATTRIB
  5
1B6
330
1B4
100
AcDbEntity
  8
BORDER
 62
     7
100
AcDbText
 10
104.0963052922036
 20
-30.36913516241281
 30
0.0
 40
0.12641892
  1

 72
     1
 11
104.0963052922036
 21
-30.36913516241281
 31
0.0
100
AcDbAttribute
  2
JOBNAM
 70
     0
280
     0
  0
ATTRIB
  5
1B7
330
1B4
100
AcDbEntity
  8
BORDER
 62
     7
100
AcDbText
 10
104.0963052922036
 20
-30.71952171642321
 30
0.0
 40
0.12641892
  1

 72
     1
 11
104.0963052922036
 21
-30.71952171642321
 31
0.0
100
AcDbAttribute
  2
DESCRIP
 70
     0
280
     0
  0
ATTRIB
  5
1B8
330
1B4
100
AcDbEntity
  8
BORDER
 62
     7
100
AcDbText
 10
106.8004743566527
 20
-30.01871328049946
 30
0.0
 40
0.12641892
  1

 72
     1
 11
106.8004743566527
 21
-30.01871328049946
 31
0.0
100
AcDbAttribute
  2
SONUM
 70
     0
280
     0
  0
ATTRIB
  5
1B9
330
1B4
100
AcDbEntity
  8
BORDER
 62
     7
100
AcDbText
 10
106.1636636157355
 20
-30.36913516241281
 30
0.0
 40
0.12641892
  1

 72
     1
 11
106.1636636157355
 21
-30.36913516241281
 31
0.0
100
AcDbAttribute
  2
ITEMNUM
 70
     0
280
     0
  0
ATTRIB
  5
1BA
330
1B4
100
AcDbEntity
  8
BORDER
 62
     7
100
AcDbText
 10
106.9942863433551
 20
-30.36913516241281
 30
0.0
 40
0.12641892
  1

 72
     1
 11
106.9942863433551
 21
-30.36913516241281
 31
0.0
100
AcDbAttribute
  2
QTY
 70
     0
280
     0
  0
ATTRIB
  5
1BB
330
1B4
100
AcDbEntity
  8
BORDER
 62
     7
100
AcDbText
 10
106.6251207007389
 20
-30.71952171642321
 30
0.0
 40
0.12641892
  1

 72
     1
 11
106.6251207007389
 21
-30.71952171642321
 31
0.0
100
AcDbAttribute
  2
DRAWNUM
 70
     0
280
     0
  0
ATTRIB
  5
1BC
330
1B4
100
AcDbEntity
  8
BORDER
 62
     7
100
AcDbText
 10
106.742728336602
 20
-29.67614590705549
 30
0.0
 40
0.1053491
  1

 72
     1
 11
106.742728336602
 21
-29.67614590705549
 31
0.0
100
AcDbAttribute
  2
NAM/DATE
 70
     0
280
     0
  0
ATTRIB
  5
1BD
330
1B4
100
AcDbEntity
  8
BORDER
 62
     7
100
AcDbText
 10
106.2770947682877
 20
-29.31981664706966
 30
0.0
 40
0.05267455
  1

 72
     1
 11
106.2770947682877
 21
-29.31981664706966
 31
0.0
100
AcDbAttribute
  2
REV
 70
     0
280
     0
  0
ATTRIB
  5
1BE
330
1B4
100
AcDbEntity
  8
BORDER
 62
     7
100
AcDbText
 10
106.6238431603213
 20
-29.31981664706966
 30
0.0
 40
0.05267455
  1

 72
     1
 11
106.6238431603213
 21
-29.31981664706966
 31
0.0
100
AcDbAttribute
  2
REV/DT.
 70
     0
280
     0
  0
ATTRIB
  5
1BF
330
1B4
100
AcDbEntity
  8
BORDER
 62
     7
100
AcDbText
 10
107.1191980544391
 20
-29.31981664706966
 30
0.0
 40
0.05267455
  1

 72
     1
 11
107.1191980544391
 21
-29.31981664706966
 31
0.0
100
AcDbAttribute
  2
REV/NAM
 70
     0
280
     0
  0
SEQEND
  5
1C0
330
1B4
100
AcDbEntity
  8
0
  0
MTEXT
  5
1C2
330
2
100
AcDbEntity
  8
0
  6
Continuous
100
AcDbMText
 10
94.2092145825768
 20
40.10158063625683
 30
0.0
 40
0.2
 41
3.366865526589492
 46
0.0
 71
     1
 72
     5
  1

 73
     1
 44
1.0
  0
INSERT
  5
1C3
330
2
100
AcDbEntity
  8
0
100
AcDbBlockReference
 66
     1
  2
BRDA4ATT
 10
85.37196060908433
 20
-4.494858301181864
 30
0.0
  0
ATTRIB
  5
1C4
330
1C3
100
AcDbEntity
  8
BORDER
 62
     7
100
AcDbText
 10
90.06199719198434
 20
-3.739294555981864
 30
0.0
 40
0.12641892
  1

 72
     1
 11
90.06199719198434
 21
-3.739294555981864
 31
0.0
100
AcDbAttribute
  2
DEALNAM
 70
     0
280
     0
  0
ATTRIB
  5
1C5
330
1C3
100
AcDbEntity
  8
BORDER
 62
     7
100
AcDbText
 10
90.06199719198434
 20
-4.089716437895211
 30
0.0
 40
0.12641892
  1

 72
     1
 11
90.06199719198434
 21
-4.089716437895211
 31
0.0
100
AcDbAttribute
  2
JOBNAM
 70
     0
280
     0
  0
ATTRIB
  5
1C6
330
1C3
100
AcDbEntity
  8
BORDER
 62
     7
100
AcDbText
 10
90.06199719198434
 20
-4.440102991905606
 30
0.0
 40
0.12641892
  1

 72
     1
 11
90.06199719198434
 21
-4.440102991905606
 31
0.0
100
AcDbAttribute
  2
DESCRIP
 70
     0
280
     0
  0
ATTRIB
  5
1C7
330
1C3
100
AcDbEntity
  8
BORDER
 62
     7
100
AcDbText
 10
92.76616625643347
 20
-3.739294555981864
 30
0.0
 40
0.12641892
  1

 72
     1
 11
92.76616625643347
 21
-3.739294555981864
 31
0.0
100
AcDbAttribute
  2
SONUM
 70
     0
280
     0
  0
ATTRIB
  5
1C8
330
1C3
100
AcDbEntity
  8
BORDER
 62
     7
100
AcDbText
 10
92.12935551551622
 20
-4.089716437895211
 30
0.0
 40
0.12641892
  1

 72
     1
 11
92.12935551551622
 21
-4.089716437895211
 31
0.0
100
AcDbAttribute
  2
ITEMNUM
 70
     0
280
     0
  0
ATTRIB
  5
1C9
330
1C3
100
AcDbEntity
  8
BORDER
 62
     7
100
AcDbText
 10
92.95997824313579
 20
-4.089716437895211
 30
0.0
 40
0.12641892
  1

 72
     1
 11
92.95997824313579
 21
-4.089716437895211
 31
0.0
100
AcDbAttribute
  2
QTY
 70
     0
280
     0
  0
ATTRIB
  5
1CA
330
1C3
100
AcDbEntity
  8
BORDER
 62
     7
100
AcDbText
 10
92.59081260051967
 20
-4.440102991905606
 30
0.0
 40
0.12641892
  1

 72
     1
 11
92.59081260051967
 21
-4.440102991905606
 31
0.0
100
AcDbAttribute
  2
DRAWNUM
 70
     0
280
     0
  0
ATTRIB
  5
1CB
330
1C3
100
AcDbEntity
  8
BORDER
 62
     7
100
AcDbText
 10
92.70842023638271
 20
-3.396727182537891
 30
0.0
 40
0.1053491
  1

 72
     1
 11
92.70842023638271
 21
-3.396727182537891
 31
0.0
100
AcDbAttribute
  2
NAM/DATE
 70
     0
280
     0
  0
ATTRIB
  5
1CC
330
1C3
100
AcDbEntity
  8
BORDER
 62
     7
100
AcDbText
 10
92.24278666806842
 20
-3.04039792255206
 30
0.0
 40
0.05267455
  1

 72
     1
 11
92.24278666806842
 21
-3.04039792255206
 31
0.0
100
AcDbAttribute
  2
REV
 70
     0
280
     0
  0
ATTRIB
  5
1CD
330
1C3
100
AcDbEntity
  8
BORDER
 62
     7
100
AcDbText
 10
92.589535060102
 20
-3.04039792255206
 30
0.0
 40
0.05267455
  1

 72
     1
 11
92.589535060102
 21
-3.04039792255206
 31
0.0
100
AcDbAttribute
  2
REV/DT.
 70
     0
280
     0
  0
ATTRIB
  5
1CE
330
1C3
100
AcDbEntity
  8
BORDER
 62
     7
100
AcDbText
 10
93.0848899542198
 20
-3.04039792255206
 30
0.0
 40
0.05267455
  1

 72
     1
 11
93.0848899542198
 21
-3.04039792255206
 31
0.0
100
AcDbAttribute
  2
REV/NAM
 70
     0
280
     0
  0
SEQEND
  5
1CF
330
1C3
100
AcDbEntity
  8
0
  0
MTEXT
  5
1D0
330
2
100
AcDbEntity
  8
0
  6
Continuous
100
AcDbMText
 10
173.0676318840195
 20
69.14737905255631
 30
0.0
 40
0.2
 41
3.366865526589492
 46
0.0
 71
     1
 72
     5
  1

 73
     1
 44
1.0
  0
INSERT
  5
1D1
330
2
100
AcDbEntity
  8
0
  6
Continuous
100
AcDbBlockReference
  2
ABOARD_P
 10
158.8045854903303
 20
18.0417659729966
 30
0.0
 41
3.5
 42
3.5
  0
MTEXT
  5
1D2
330
2
100
AcDbEntity
  8
0
  6
Continuous
100
AcDbMText
 10
181.1854105500895
 20
48.35004131658505
 30
0.0
 40
0.2
 41
3.366865526589492
 46
0.0
 71
     1
 72
     5
  1

 73
     1
 44
1.0
  0
INSERT
  5
1D3
330
2
100
AcDbEntity
  8
0
  6
Continuous
100
AcDbBlockReference
  2
ABOARD_P
 10
166.9223641564003
 20
-2.755571762974671
 30
0.0
 41
3.5
 42
3.5
  0
MTEXT
  5
1D4
330
2
100
AcDbEntity
  8
0
  6
Continuous
100
AcDbMText
 10
202.7178770606337
 20
34.84858917396361
 30
0.0
 40
0.2
 41
3.366865526589492
 46
0.0
 71
     1
 72
     5
  1

 73
     1
 44
1.0
  0
INSERT
  5
1D5
330
2
100
AcDbEntity
  8
0
100
AcDbBlockReference
 66
     1
  2
BRDA4ATT
 10
193.8806230871412
 20
-9.747849763475102
 30
0.0
  0
ATTRIB
  5
1D6
330
1D5
100
AcDbEntity
  8
BORDER
 62
     7
100
AcDbText
 10
198.5706596700412
 20
-8.992286018275102
 30
0.0
 40
0.12641892
  1

 72
     1
 11
198.5706596700412
 21
-8.992286018275102
 31
0.0
100
AcDbAttribute
  2
DEALNAM
 70
     0
280
     0
  0
ATTRIB
  5
1D7
330
1D5
100
AcDbEntity
  8
BORDER
 62
     7
100
AcDbText
 10
198.5706596700412
 20
-9.34270790018845
 30
0.0
 40
0.12641892
  1

 72
     1
 11
198.5706596700412
 21
-9.34270790018845
 31
0.0
100
AcDbAttribute
  2
JOBNAM
 70
     0
280
     0
  0
ATTRIB
  5
1D8
330
1D5
100
AcDbEntity
  8
BORDER
 62
     7
100
AcDbText
 10
198.5706596700412
 20
-9.693094454198844
 30
0.0
 40
0.12641892
  1

 72
     1
 11
198.5706596700412
 21
-9.693094454198844
 31
0.0
100
AcDbAttribute
  2
DESCRIP
 70
     0
280
     0
  0
ATTRIB
  5
1D9
330
1D5
100
AcDbEntity
  8
BORDER
 62
     7
100
AcDbText
 10
201.2748287344904
 20
-8.992286018275102
 30
0.0
 40
0.12641892
  1

 72
     1
 11
201.2748287344904
 21
-8.992286018275102
 31
0.0
100
AcDbAttribute
  2
SONUM
 70
     0
280
     0
  0
ATTRIB
  5
1DA
330
1D5
100
AcDbEntity
  8
BORDER
 62
     7
100
AcDbText
 10
200.6380179935732
 20
-9.34270790018845
 30
0.0
 40
0.12641892
  1

 72
     1
 11
200.6380179935732
 21
-9.34270790018845
 31
0.0
100
AcDbAttribute
  2
ITEMNUM
 70
     0
280
     0
  0
ATTRIB
  5
1DB
330
1D5
100
AcDbEntity
  8
BORDER
 62
     7
100
AcDbText
 10
201.4686407211927
 20
-9.34270790018845
 30
0.0
 40
0.12641892
  1

 72
     1
 11
201.4686407211927
 21
-9.34270790018845
 31
0.0
100
AcDbAttribute
  2
QTY
 70
     0
280
     0
  0
ATTRIB
  5
1DC
330
1D5
100
AcDbEntity
  8
BORDER
 62
     7
100
AcDbText
 10
201.0994750785766
 20
-9.693094454198844
 30
0.0
 40
0.12641892
  1

 72
     1
 11
201.0994750785766
 21
-9.693094454198844
 31
0.0
100
AcDbAttribute
  2
DRAWNUM
 70
     0
280
     0
  0
ATTRIB
  5
1DD
330
1D5
100
AcDbEntity
  8
BORDER
 62
     7
100
AcDbText
 10
201.2170827144396
 20
-8.649718644831128
 30
0.0
 40
0.1053491
  1

 72
     1
 11
201.2170827144396
 21
-8.649718644831128
 31
0.0
100
AcDbAttribute
  2
NAM/DATE
 70
     0
280
     0
  0
ATTRIB
  5
1DE
330
1D5
100
AcDbEntity
  8
BORDER
 62
     7
100
AcDbText
 10
200.7514491461253
 20
-8.293389384845298
 30
0.0
 40
0.05267455
  1

 72
     1
 11
200.7514491461253
 21
-8.293389384845298
 31
0.0
100
AcDbAttribute
  2
REV
 70
     0
280
     0
  0
ATTRIB
  5
1DF
330
1D5
100
AcDbEntity
  8
BORDER
 62
     7
100
AcDbText
 10
201.0981975381589
 20
-8.293389384845298
 30
0.0
 40
0.05267455
  1

 72
     1
 11
201.0981975381589
 21
-8.293389384845298
 31
0.0
100
AcDbAttribute
  2
REV/DT.
 70
     0
280
     0
  0
ATTRIB
  5
1E0
330
1D5
100
AcDbEntity
  8
BORDER
 62
     7
100
AcDbText
 10
201.5935524322767
 20
-8.293389384845298
 30
0.0
 40
0.05267455
  1

 72
     1
 11
201.5935524322767
 21
-8.293389384845298
 31
0.0
100
AcDbAttribute
  2
REV/NAM
 70
     0
280
     0
  0
SEQEND
  5
1E1
330
1D5
100
AcDbEntity
  8
0
  0
ARC
  5
7652
330
2
100
AcDbEntity
  8
BACKGROUND
100
AcDbCircle
 10
2.015319333694876
 20
198.2976315734704
 30
0.0
 40
4.055412
100
AcDbArc
 50
313.6811571087557
 51
45.79559243304116
  0
POLYLINE
  5
7653
330
2
100
AcDbEntity
  8
0
100
AcDb3dPolyline
 66
     1
 10
0.0
 20
0.0
 30
0.0
 70
     8
  0
VERTEX
  5
7654
330
7653
100
AcDbEntity
  8
0
100
AcDbVertex
100
AcDb3dPolylineVertex
 10
-5.410441538599613
 20
202.4340072481604
 30
0.0
 70
    32
  0
VERTEX
  5
7655
330
7653
100
AcDbEntity
  8
0
100
AcDbVertex
100
AcDb3dPolylineVertex
 10
-5.812634542827865
 20
202.4160905573988
 30
0.0
 70
    32
  0
VERTEX
  5
7656
330
7653
100
AcDbEntity
  8
0
100
AcDbVertex
100
AcDb3dPolylineVertex
 10
-6.211135135200123
 20
202.3588355962167
 30
0.0
 70
    32
  0
VERTEX
  5
7657
330
7653
100
AcDbEntity
  8
0
100
AcDbVertex
100
AcDb3dPolylineVertex
 10
-6.602107748372546
 20
202.2627958563945
 30
0.0
 70
    32
  0
VERTEX
  5
7658
330
7653
100
AcDbEntity
  8
0
100
AcDbVertex
100
AcDb3dPolylineVertex
 10
-6.981782101975639
 20
202.1289001317388
 30
0.0
 70
    32
  0
VERTEX
  5
7659
330
7653
100
AcDbEntity
  8
0
100
AcDbVertex
100
AcDb3dPolylineVertex
 10
-7.346503275152358
 20
201.95843674656
 30
0.0
 70
    32
  0
VERTEX
  5
765A
330
7653
100
AcDbEntity
  8
0
100
AcDbVertex
100
AcDb3dPolylineVertex
 10
-7.69276077931488
 20
201.7530376882585
 30
0.0
 70
    32
  0
VERTEX
  5
765B
330
7653
100
AcDbEntity
  8
0
100
AcDbVertex
100
AcDb3dPolylineVertex
 10
-8.017218484772769
 20
201.5146947441444
 30
0.0
 70
    32
  0
VERTEX
  5
765C
330
7653
100
AcDbEntity
  8
0
100
AcDbVertex
100
AcDb3dPolylineVertex
 10
-8.316751908018105
 20
201.2456966710436
 30
0.0
 70
    32
  0
VERTEX
  5
765D
330
7653
100
AcDbEntity
  8
0
100
AcDbVertex
100
AcDb3dPolylineVertex
 10
-8.588477197724486
 20
200.9486323276869
 30
0.0
 70
    32
  0
VERTEX
  5
765E
330
7653
100
AcDbEntity
  8
0
100
AcDbVertex
100
AcDb3dPolylineVertex
 10
-8.829775244085894
 20
200.6263667845486
 30
0.0
 70
    32
  0
VERTEX
  5
765F
330
7653
100
AcDbEntity
  8
0
100
AcDbVertex
100
AcDb3dPolylineVertex
 10
-9.038324861120784
 20
200.2820014749491
 30
0.0
 70
    32
  0
VERTEX
  5
7660
330
7653
100
AcDbEntity
  8
0
100
AcDbVertex
100
AcDb3dPolylineVertex
 10
-9.212114877871158
 20
199.9188542500569
 30
0.0
 70
    32
  0
VERTEX
  5
7661
330
7653
100
AcDbEntity
  8
0
100
AcDbVertex
100
AcDb3dPolylineVertex
 10
-9.349475325293788
 20
199.5404185208691
 30
0.0
 70
    32
  0
VERTEX
  5
7662
330
7653
100
AcDbEntity
  8
0
100
AcDbVertex
100
AcDb3dPolylineVertex
 10
-9.449080564082677
 20
199.1503352722018
 30
0.0
 70
    32
  0
VERTEX
  5
7663
330
7653
100
AcDbEntity
  8
0
100
AcDbVertex
100
AcDb3dPolylineVertex
 10
-9.509971352932957
 20
198.7523781633029
 30
0.0
 70
    32
  0
VERTEX
  5
7664
330
7653
100
AcDbEntity
  8
0
100
AcDbVertex
100
AcDb3dPolylineVertex
 10
-9.53156225029376
 20
198.3503655607329
 30
0.0
 70
    32
  0
VERTEX
  5
7665
330
7653
100
AcDbEntity
  8
0
100
AcDbVertex
100
AcDb3dPolylineVertex
 10
-9.51364556409846
 20
197.948171556515
 30
0.0
 70
    32
  0
VERTEX
  5
7666
330
7653
100
AcDbEntity
  8
0
100
AcDbVertex
100
AcDb3dPolylineVertex
 10
-9.456391621170752
 20
197.5496669687507
 30
0.0
 70
    32
  0
VERTEX
  5
7667
330
7653
100
AcDbEntity
  8
0
100
AcDbVertex
100
AcDb3dPolylineVertex
 10
-9.360354863052357
 20
197.1586983692352
 30
0.0
 70
    32
  0
VERTEX
  5
7668
330
7653
100
AcDbEntity
  8
0
100
AcDbVertex
100
AcDb3dPolylineVertex
 10
-9.226458133840928
 20
196.7790250110554
 30
0.0
 70
    32
  0
VERTEX
  5
7669
330
7653
100
AcDbEntity
  8
0
100
AcDbVertex
100
AcDb3dPolylineVertex
 10
-9.05599174412719
 20
196.4143048241697
 30
0.0
 70
    32
  0
VERTEX
  5
766A
330
7653
100
AcDbEntity
  8
0
100
AcDbVertex
100
AcDb3dPolylineVertex
 10
-8.850597676641172
 20
196.0680493428173
 30
0.0
 70
    32
  0
VERTEX
  5
766B
330
7653
100
AcDbEntity
  8
0
100
AcDbVertex
100
AcDb3dPolylineVertex
 10
-8.61225175995554
 20
195.7435856237234
 30
0.0
 70
    32
  0
VERTEX
  5
766C
330
7653
100
AcDbEntity
  8
0
100
AcDbVertex
100
AcDb3dPolylineVertex
 10
-8.343252682298967
 20
195.4440531959014
 30
0.0
 70
    32
  0
VERTEX
  5
766D
330
7653
100
AcDbEntity
  8
0
100
AcDbVertex
100
AcDb3dPolylineVertex
 10
-8.0461893252332
 20
195.17233091073
 30
0.0
 70
    32
  0
VERTEX
  5
766E
330
7653
100
AcDbEntity
  8
0
100
AcDbVertex
100
AcDb3dPolylineVertex
 10
-7.723921777549605
 20
194.9310338552257
 30
0.0
 70
    32
  0
VERTEX
  5
766F
330
7653
100
AcDbEntity
  8
0
100
AcDbVertex
100
AcDb3dPolylineVertex
 10
-7.379554481669515
 20
194.7224812290897
 30
0.0
 70
    32
  0
VERTEX
  5
7670
330
7653
100
AcDbEntity
  8
0
100
AcDbVertex
100
AcDb3dPolylineVertex
 10
-7.016404275073426
 20
194.5486871986824
 30
0.0
 70
    32
  0
VERTEX
  5
7671
330
7653
100
AcDbEntity
  8
0
100
AcDbVertex
100
AcDb3dPolylineVertex
 10
-6.637967532197478
 20
194.4113297466623
 30
0.0
 70
    32
  0
VERTEX
  5
7672
330
7653
100
AcDbEntity
  8
0
100
AcDbVertex
100
AcDb3dPolylineVertex
 10
-6.247890288033886
 20
194.311723535281
 30
0.0
 70
    32
  0
VERTEX
  5
7673
330
7653
100
AcDbEntity
  8
0
100
AcDbVertex
100
AcDb3dPolylineVertex
 10
-5.849927151800258
 20
194.250838718971
 30
0.0
 70
    32
  0
VERTEX
  5
7674
330
7653
100
AcDbEntity
  8
0
100
AcDbVertex
100
AcDb3dPolylineVertex
 10
-5.447912572082074
 20
194.2292428125299
 30
0.0
 70
    32
  0
SEQEND
  5
7675
330
7653
100
AcDbEntity
  8
0
  0
ARC
  5
7677
330
2
100
AcDbEntity
  8
0
100
AcDbCircle
 10
-5.347328681497216
 20
210.6992199995781
 30
0.0
 40
16.4702843224072
100
AcDbArc
 50
269.6500929718212
 51
300.5201862926774
  0
ARC
  5
7678
330
2
100
AcDbEntity
  8
0
100
AcDbCircle
 10
5.051695260857229
 20
186.9020578750355
 30
0.0
 40
15.53609185802878
210
0.0
220
0.0
230
-1.0
100
AcDbArc
 50
88.67685677423731
 51
121.4766186717388
  0
ARC
  5
767A
330
2
100
AcDbEntity
  8
0
100
AcDbCircle
 10
2.155055301292094
 20
198.3420369732206
 30
0.0
 40
2.023858643479707
100
AcDbArc
 50
295.2062381419517
 51
63.42445163388054
  0
LINE
  5
7903
330
2
100
AcDbEntity
  8
OBJECT
100
AcDbLine
 10
29.17260390732162
 20
186.2844043261516
 30
0.0
 11
29.17260390732165
 21
203.20916384662
 31
0.0
  0
LINE
  5
79BD
330
2
100
AcDbEntity
  8
OBJECT
100
AcDbLine
 10
29.17260390732162
 20
186.2844043261516
 30
0.0
 11
51.17260390732165
 21
186.2844043261516
 31
0.0
  0
LINE
  5
7A0E
330
2
100
AcDbEntity
  8
OBJECT
100
AcDbLine
 10
29.17260390732165
 20
203.20916384662
 30
0.0
 11
49.17260390732165
 21
203.2094053261536
 31
0.0
  0
ARC
  5
7A20
330
2
100
AcDbEntity
  8
BACKGROUND
100
AcDbCircle
 10
-5.40886821142601
 20
198.3700965150804
 30
0.0
 40
7.038592646257512
100
AcDbArc
 50
212.0896966324287
 51
238.8222137368317
  0
ARC
  5
7A21
330
2
100
AcDbEntity
  8
BACKGROUND
100
AcDbCircle
 10
-5.417565476008505
 20
206.3317815927681
 30
0.0
 40
15.00014685854784
100
AcDbArc
 50
269.8335112443257
 51
313.0191062176219
  0
ARC
  5
7A23
330
2
100
AcDbEntity
  8
BACKGROUND
100
AcDbCircle
 10
-5.409220321688337
 20
198.2929850996072
 30
0.0
 40
7.038592646257512
100
AcDbArc
 50
89.90235967802268
 51
120.654327855658
  0
ARC
  5
7A24
330
2
100
AcDbEntity
  8
BACKGROUND
100
AcDbCircle
 10
-5.490625850522448
 20
190.3317114541054
 30
0.0
 40
15.00014685854784
100
AcDbArc
 50
46.45764332417406
 51
89.64323829747007
  0
CIRCLE
  5
8BE7
330
2
100
AcDbEntity
  8
OBJECT
100
AcDbCircle
 10
-12.22659134130021
 20
201.1127074160512
 30
0.0
 40
0.182
  0
CIRCLE
  5
8BE8
330
2
100
AcDbEntity
  8
OBJECT
100
AcDbCircle
 10
-12.25170547312438
 20
195.612764754497
 30
0.0
 40
0.182
  0
ARC
  5
8BE9
330
2
100
AcDbEntity
  8
BACKGROUND
100
AcDbCircle
 10
-5.409220321688394
 20
198.2929850996072
 30
0.0
 40
7.038592646257493
100
AcDbArc
 50
120.654327855658
 51
147.3869264382588
  0
ARC
  5
8BEA
330
2
100
AcDbEntity
  8
BACKGROUND
100
AcDbCircle
 10
-5.408868144835508
 20
198.3701110982617
 30
0.0
 40
7.038592646257512
100
AcDbArc
 50
238.8224216861393
 51
269.5743898637734
  0
LINE
  5
92FF
330
2
100
AcDbEntity
  8
OBJECT
100
AcDbLine
 10
-13.94611525678058
 20
194.6426243383458
 30
0.0
 11
-13.91206649559854
 21
202.0982797849103
 31
0.0
  0
LINE
  5
9ACB
330
2
100
AcDbEntity
  8
OBJECT
100
AcDbLine
 10
-13.94611525678058
 20
194.6426243383458
 30
0.0
 11
-11.37208685050421
 21
194.6308706724092
 31
0.0
  0
LINE
  5
9ACC
330
2
100
AcDbEntity
  8
OBJECT
100
AcDbLine
 10
-13.91206649559854
 20
202.0982797849103
 30
0.0
 11
-11.33803412477613
 21
202.0865261008706
 31
0.0
  0
LINE
  5
9AE5
330
2
100
AcDbEntity
  8
OBJECT
100
AcDbLine
 10
49.17260390732165
 20
203.2094053261536
 30
0.0
 11
49.17260390732165
 21
186.2844043261516
 31
0.0
  0
ARC
  5
9AFE
330
2
100
AcDbEntity
  8
BACKGROUND
100
AcDbCircle
 10
-5.490625850522448
 20
190.3317114541054
 30
0.0
 40
17.00014685854783
100
AcDbArc
 50
46.45764332417406
 51
89.64323829747007
  0
ARC
  5
9AFF
330
2
100
AcDbEntity
  8
BACKGROUND
100
AcDbCircle
 10
2.015319333694876
 20
198.2976315734704
 30
0.0
 40
6.055412
100
AcDbArc
 50
313.6811571087557
 51
45.79559243304116
  0
ARC
  5
9B00
330
2
100
AcDbEntity
  8
BACKGROUND
100
AcDbCircle
 10
-5.417565476008505
 20
206.3317815927681
 30
0.0
 40
17.00014685854783
100
AcDbArc
 50
269.8335112443257
 51
313.0191062176219
  0
ARC
  5
9B01
330
2
100
AcDbEntity
  8
BACKGROUND
100
AcDbCircle
 10
-5.408868144835508
 20
198.3701110982617
 30
0.0
 40
9.038592646257512
100
AcDbArc
 50
238.8224216861393
 51
269.5743898637734
  0
ARC
  5
9B02
330
2
100
AcDbEntity
  8
BACKGROUND
100
AcDbCircle
 10
-5.409220321688394
 20
198.2929850996072
 30
0.0
 40
9.038592646257493
100
AcDbArc
 50
120.654327855658
 51
147.3869264382588
  0
ARC
  5
9B03
330
2
100
AcDbEntity
  8
BACKGROUND
100
AcDbCircle
 10
-5.409220321688337
 20
198.2929850996072
 30
0.0
 40
9.038592646257512
100
AcDbArc
 50
89.90235967802268
 51
120.654327855658
  0
ARC
  5
9B04
330
2
100
AcDbEntity
  8
BACKGROUND
100
AcDbCircle
 10
-5.40886821142601
 20
198.3700965150804
 30
0.0
 40
9.038592646257512
100
AcDbArc
 50
212.0896966324287
 51
238.8222137368317
  0
LINE
  5
9B05
330
2
100
AcDbEntity
  8
BACKGROUND
100
AcDbLine
 10
-13.02269300505389
 20
203.1644520988413
 30
0.0
 11
-13.02758105078576
 21
202.0942410002493
 31
0.0
  0
LINE
  5
9B06
330
2
100
AcDbEntity
  8
BACKGROUND
100
AcDbLine
 10
-13.06163375753097
 20
194.6385855717013
 30
0.0
 11
-13.06652178622931
 21
193.5683782025091
 31
0.0
  0
LINE
  5
9B08
330
2
100
AcDbEntity
  8
OBJECT
100
AcDbLine
 10
29.17260390732162
 20
186.2094043261516
 30
0.0
 11
51.17260390732165
 21
186.2094043261516
 31
0.0
  0
LINE
  5
9B09
330
2
100
AcDbEntity
  8
OBJECT
100
AcDbLine
 10
31.67260390732165
 20
180.2094043261516
 30
0.0
 11
31.67260390732165
 21
186.2091658466193
 31
0.0
  0
LINE
  5
9B0A
330
2
100
AcDbEntity
  8
OBJECT
100
AcDbLine
 10
49.17260390732165
 20
186.2844073261529
 30
0.0
 11
49.17260390732164
 21
180.2094043261516
 31
0.0
  0
LINE
  5
9B0E
330
2
100
AcDbEntity
  8
OBJECT
100
AcDbLine
 10
31.67260390732165
 20
180.2094043261516
 30
0.0
 11
49.17260390732164
 21
180.2094043261516
 31
0.0
  0
LINE
  5
9BAA
330
2
100
AcDbEntity
  8
HIDDEN
100
AcDbLine
 10
-11.33803412477613
 20
202.0865261008706
 30
0.0
 11
-11.37208685050421
 21
194.6308706724092
 31
0.0
  0
LINE
  5
9BE7
330
2
100
AcDbEntity
  8
OBJECT
100
AcDbLine
 10
31.67260390732162
 20
186.2844043261516
 30
0.0
 11
31.67260390732165
 21
203.20916384662
 31
0.0
  0
LINE
  5
9BE8
330
2
100
AcDbEntity
  8
OBJECT
100
AcDbLine
 10
29.17260390732162
 20
186.2094043261516
 30
0.0
 11
29.17260390732162
 21
186.2844043261516
 31
0.0
  0
LINE
  5
9BE9
330
2
100
AcDbEntity
  8
OBJECT
100
AcDbLine
 10
51.17260390732165
 20
186.2094043261516
 30
0.0
 11
51.17260390732165
 21
186.2844043261516
 31
0.0
  0
ARC
  5
9DC4
330
2
100
AcDbEntity
  8
OBJECT
100
AcDbCircle
 10
-5.490625850522448
 20
190.3317114541054
 30
0.0
 40
15.07514685854783
100
AcDbArc
 50
46.45764332417406
 51
89.64323829747007
  0
ARC
  5
9DC5
330
2
100
AcDbEntity
  8
OBJECT
100
AcDbCircle
 10
2.015319333694876
 20
198.2976315734704
 30
0.0
 40
4.130412
100
AcDbArc
 50
313.6811571087557
 51
45.79559243304116
  0
ARC
  5
9DC6
330
2
100
AcDbEntity
  8
OBJECT
100
AcDbCircle
 10
-5.417565476008505
 20
206.3317815927681
 30
0.0
 40
15.07514685854783
100
AcDbArc
 50
269.8335112443257
 51
313.0191062176219
  0
ARC
  5
9DC7
330
2
100
AcDbEntity
  8
OBJECT
100
AcDbCircle
 10
-5.408868144835508
 20
198.3701110982617
 30
0.0
 40
7.113592646257512
100
AcDbArc
 50
238.8224216861393
 51
269.5743898637734
  0
ARC
  5
9DC8
330
2
100
AcDbEntity
  8
0
100
AcDbCircle
 10
-5.40886821142601
 20
198.3700965150804
 30
0.0
 40
7.113592646257512
100
AcDbArc
 50
212.0896966324287
 51
238.8222137368317
  0
ARC
  5
9DC9
330
2
100
AcDbEntity
  8
0
100
AcDbCircle
 10
-5.409220321688394
 20
198.2929850996072
 30
0.0
 40
7.113592646257493
100
AcDbArc
 50
120.654327855658
 51
147.3869264382588
  0
ARC
  5
9DCA
330
2
100
AcDbEntity
  8
OBJECT
100
AcDbCircle
 10
-5.409220321688337
 20
198.2929850996072
 30
0.0
 40
7.113592646257512
100
AcDbArc
 50
89.90235967802268
 51
120.654327855658
  0
LINE
  5
9DCB
330
2
100
AcDbEntity
  8
HIDDEN
100
AcDbLine
 10
-11.41303334250632
 20
202.0868686499349
 30
0.0
 11
-11.44708606823439
 21
194.6312132214735
 31
0.0
  0
LINE
  5
9DCC
330
2
100
AcDbEntity
  8
HIDDEN
100
AcDbLine
 10
-13.91240896103251
 20
202.0232805667982
 30
0.0
 11
-11.33837659021009
 21
202.0115268827585
 31
0.0
  0
LINE
  5
9DCD
330
2
100
AcDbEntity
  8
HIDDEN
100
AcDbLine
 10
-13.94577279134662
 20
194.7176235564578
 30
0.0
 11
-11.37174438507024
 21
194.7058698905212
 31
0.0
  0
LINE
  5
9DCE
330
2
100
AcDbEntity
  8
HIDDEN
100
AcDbLine
 10
-13.87111603886827
 20
194.6422818291623
 30
0.0
 11
-13.83706727768622
 21
202.0979372757268
 31
0.0
  0
ARC
  5
A038
330
2
100
AcDbEntity
  8
DETAIL_PRINT
  6
CENTER
 62
     3
100
AcDbCircle
 10
-4.379175792281273
 20
198.326830458518
 30
0.0
 40
6.506
100
AcDbArc
 50
74.73965216959839
 51
179.7383747708989
  0
ARC
  5
A039
330
2
100
AcDbEntity
  8
DETAIL_PRINT
  6
CENTER
 62
     3
100
AcDbCircle
 10
-7.930870193098982
 20
185.3086315476793
 30
0.0
 40
20.0
100
AcDbArc
 50
51.31171141869826
 51
74.73965216959839
  0
ARC
  5
A03A
330
2
100
AcDbEntity
  8
DETAIL_PRINT
  6
CENTER
 62
     3
100
AcDbCircle
 10
2.469262775824518
 20
198.2955587526889
 30
0.0
 40
3.362
100
AcDbArc
 50
359.738374770899
 51
51.31171141869826
  0
ARC
  5
A03B
330
2
100
AcDbEntity
  8
DETAIL_PRINT
  6
CENTER
 62
     3
100
AcDbCircle
 10
-7.811835774808855
 20
211.3769217012379
 30
0.0
 40
20.0
100
AcDbArc
 50
284.7370973721997
 51
308.1650381230978
  0
ARC
  5
A03C
330
2
100
AcDbEntity
  8
DETAIL_PRINT
  6
CENTER
 62
     3
100
AcDbCircle
 10
-4.379175792281273
 20
198.326830458518
 30
0.0
 40
6.506
100
AcDbArc
 50
179.7383747708989
 51
284.7370973721997
  0
ARC
  5
A03D
330
2
100
AcDbEntity
  8
DETAIL_PRINT
  6
CENTER
 62
     3
100
AcDbCircle
 10
2.469262775824518
 20
198.2955587526889
 30
0.0
 40
3.362
100
AcDbArc
 50
308.1650381230978
 51
359.738374770899
  0
LINE
  5
A090
330
2
100
AcDbEntity
  8
HIDDEN
100
AcDbLine
 10
47.95963011693905
 20
202.4684053261536
 30
0.0
 11
39.01735390732166
 21
202.34416384662
 31
0.0
  0
ARC
  5
A091
330
2
100
AcDbEntity
  8
HIDDEN
100
AcDbCircle
 10
48.93314008193905
 20
201.8844053261536
 30
0.0
 40
1.25
100
AcDbArc
 50
90.0
 51
137.7017429443007
  0
LINE
  5
A092
330
2
100
AcDbEntity
  8
HIDDEN
100
AcDbLine
 10
49.17260390732165
 20
203.1344053261536
 30
0.0
 11
48.93314008193907
 21
203.1344053261537
 31
0.0
  0
ARC
  5
A093
330
2
100
AcDbEntity
  8
HIDDEN
100
AcDbCircle
 10
48.14763011693909
 20
202.5991207205536
 30
0.0
 40
0.188
100
AcDbArc
 50
137.7017429443007
 51
180.0
  0
LINE
  5
A094
330
2
100
AcDbEntity
  8
HIDDEN
100
AcDbLine
 10
47.95963011693905
 20
202.5991207205536
 30
0.0
 11
47.95963011693905
 21
202.4684053261536
 31
0.0
  0
ARC
  5
A095
330
2
100
AcDbEntity
  8
HIDDEN
100
AcDbCircle
 10
34.24835390732167
 20
202.57275306722
 30
0.0
 40
0.188
100
AcDbArc
 50
0.0
 51
78.00000000000075
  0
LINE
  5
A096
330
2
100
AcDbEntity
  8
HIDDEN
100
AcDbLine
 10
39.01735390732166
 20
202.34416384662
 30
0.0
 11
34.43635390732164
 21
202.34416384662
 31
0.0
  0
LINE
  5
A097
330
2
100
AcDbEntity
  8
HIDDEN
100
AcDbLine
 10
34.43635390732164
 20
202.57275306722
 30
0.0
 11
34.43635390732164
 21
202.34416384662
 31
0.0
  0
LINE
  5
A098
330
2
100
AcDbEntity
  8
HIDDEN
100
AcDbLine
 10
32.51135390732166
 20
203.13416384662
 30
0.0
 11
34.28744130522165
 21
202.75664481612
 31
0.0
  0
LINE
  5
A099
330
2
100
AcDbEntity
  8
HIDDEN
100
AcDbLine
 10
32.51135390732166
 20
203.13416384662
 30
0.0
 11
31.91635390732166
 21
203.13416384662
 31
0.0
  0
LINE
  5
A09A
330
2
100
AcDbEntity
  8
HIDDEN
100
AcDbLine
 10
49.17260390732165
 20
203.1344053261537
 30
0.0
 11
49.17260390732165
 21
203.2094053261536
 31
0.0
  0
LINE
  5
A09B
330
2
100
AcDbEntity
  8
HIDDEN
100
AcDbLine
 10
31.67260390732165
 20
203.13416384662
 30
0.0
 11
31.67260390732165
 21
203.20916384662
 31
0.0
  0
LINE
  5
A09C
330
2
100
AcDbEntity
  8
HIDDEN
100
AcDbLine
 10
31.91635390732166
 20
203.13416384662
 30
0.0
 11
31.67260390732165
 21
203.13416384662
 31
0.0
  0
LINE
  5
A0B0
330
2
100
AcDbEntity
  8
CENTER
100
AcDbLine
 10
34.42260390732165
 20
185.3647619608594
 30
0.0
 11
34.42260390732165
 21
187.7040466914438
 31
0.0
  0
LINE
  5
A0B1
330
2
100
AcDbEntity
  8
CENTER
100
AcDbLine
 10
46.42260390732165
 20
185.3647619608594
 30
0.0
 11
46.42260390732165
 21
187.7040466914438
 31
0.0
  0
CIRCLE
  5
A0B7
330
2
100
AcDbEntity
  8
BACKGROUND
100
AcDbCircle
 10
3.345280222356365
 20
203.6708067520018
 30
0.0
 40
0.25
  0
CIRCLE
  5
A0B8
330
2
100
AcDbEntity
  8
BACKGROUND
100
AcDbCircle
 10
-8.645801846149964
 20
205.6512125877988
 30
0.0
 40
0.25
  0
CIRCLE
  5
A0BA
330
2
100
AcDbEntity
  8
BACKGROUND
100
AcDbCircle
 10
3.296155226744076
 20
192.9125348352835
 30
0.0
 40
0.25
  0
CIRCLE
  5
A0BB
330
2
100
AcDbEntity
  8
BACKGROUND
100
AcDbCircle
 10
-8.71251250062194
 20
191.0417179383556
 30
0.0
 40
0.25
  0
LINE
  5
A59B
330
2
100
AcDbEntity
  8
OBJECT
100
AcDbLine
 10
29.09760390732162
 20
186.2844043261516
 30
0.0
 11
29.09760390732165
 21
203.20916384662
 31
0.0
  0
LINE
  5
A8B1
330
2
100
AcDbEntity
  8
BACKGROUND
100
AcDbLine
 10
-11.78802943306682
 20
202.0885809771048
 30
0.0
 11
-11.8220821587949
 21
194.6329255486433
 31
0.0
  0
LINE
  5
AB5D
330
2
100
AcDbEntity
  8
ToiletSeat
100
AcDbLine
 10
33.00440942999966
 20
204.4592101118416
 30
0.0
 11
49.42260390732165
 21
204.4594083447389
 31
0.0
  0
ARC
  5
AB6A
330
2
100
AcDbEntity
  8
ToiletSeat
100
AcDbCircle
 10
33.00440942999965
 20
208.4592101121332
 30
0.0
 40
4.000000000000007
100
AcDbArc
 50
237.9067659644517
 51
270.0
  0
LINE
  5
AB6D
330
2
100
AcDbEntity
  8
ToiletSeat
100
AcDbLine
 10
34.0318770572703
 20
203.459222517389
 30
0.0
 11
49.67260390732165
 21
203.4594113631602
 31
0.0
  0
LINE
  5
AB7B
330
2
100
AcDbEntity
  8
ToiletSeat
100
AcDbLine
 10
49.42260390732165
 20
204.4594083447389
 30
0.0
 11
49.67260390732165
 21
203.4594113631602
 31
0.0
  0
LINE
  5
AB7F
330
2
100
AcDbEntity
  8
ToiletSeat
100
AcDbLine
 10
30.90055853144096
 20
204.6457083689821
 30
0.0
 11
29.98133028792554
 21
222.9397339846091
 31
0.0
  0
LINE
  5
AB80
330
2
100
AcDbEntity
  8
ToiletSeat
100
AcDbLine
 10
30.17323391628772
 20
204.1756031635311
 30
0.0
 11
29.24302630065555
 21
222.6881348098032
 31
0.0
  0
LINE
  5
AB81
330
2
100
AcDbEntity
  8
ToiletSeat
100
AcDbLine
 10
29.98133028792554
 20
222.9397339846091
 30
0.0
 11
29.24302630065555
 21
222.6881348098032
 31
0.0
  0
ARC
  5
AB82
330
2
100
AcDbEntity
  8
ToiletSeat
100
AcDbCircle
 10
30.67260390732165
 20
204.2006952350831
 30
0.0
 40
0.5000000000000009
100
AcDbArc
 50
182.8765478671622
 51
62.87654786716261
  0
ARC
  5
AB83
330
2
100
AcDbEntity
  8
ToiletSeat
100
AcDbCircle
 10
34.0318770572703
 20
221.9720247225422
 30
0.0
 40
18.51280220515329
100
AcDbArc
 50
260.1115896522324
 51
270.0
  0
LINE
  5
AB84
330
2
100
AcDbEntity
  8
ToiletSeat
100
AcDbLine
 10
29.99300546359973
 20
203.2091737521293
 30
0.0
 11
30.29351001936632
 21
203.874677100442
 31
0.0
  0
LINE
  5
AB85
330
2
100
AcDbEntity
  8
ToiletSeat
100
AcDbLine
 10
31.12271529446246
 20
203.2091873922194
 30
0.0
 11
30.97177711548984
 21
203.7138858843845
 31
0.0
  0
LINE
  5
B317
102
{ACAD_REACTORS
330
B34B
102
}
330
2
100
AcDbEntity
  8
OBJECT
100
AcDbLine
 10
21.25582562501453
 20
186.1294043261516
 30
0.0
 11
31.54760390732165
 21
186.1294043261516
 31
0.0
  0
LINE
  5
B318
102
{ACAD_REACTORS
330
B34B
102
}
330
2
100
AcDbEntity
  8
OBJECT
100
AcDbLine
 10
19.40154850434005
 20
181.1294043261516
 30
0.0
 11
31.54760390732165
 21
181.1294043261516
 31
0.0
  0
LINE
  5
B31F
102
{ACAD_REACTORS
330
B34B
102
}
330
2
100
AcDbEntity
  8
BACKGROUND
100
AcDbLine
 10
21.54018353882749
 20
186.8961665070643
 30
0.0
 11
20.50897971264031
 21
184.1155577871226
 31
0.0
  0
LINE
  5
B320
102
{ACAD_REACTORS
330
B35A
102
}
330
2
100
AcDbEntity
  8
ToiletSeat
100
AcDbLine
 10
66.61092597492289
 20
186.6902488904721
 30
0.0
 11
65.74083180603915
 21
183.8812007167153
 31
0.0
  0
LINE
  5
B322
102
{ACAD_REACTORS
330
B34B
102
}
330
2
100
AcDbEntity
  8
OBJECT
100
AcDbLine
 10
31.54760390732165
 20
181.1294043261516
 30
0.0
 11
31.54760390732165
 21
186.1294043261516
 31
0.0
  0
LINE
  5
B323
102
{ACAD_REACTORS
330
B35A
102
}
330
2
100
AcDbEntity
  8
OBJECT
100
AcDbLine
 10
49.29760390732165
 20
186.1294043261516
 30
0.0
 11
49.29760390732164
 21
181.1294043261516
 31
0.0
  0
LINE
  5
B324
102
{ACAD_REACTORS
330
B35A
102
}
330
2
100
AcDbEntity
  8
OBJECT
100
AcDbLine
 10
49.29760390732165
 20
186.1294043261516
 30
0.0
 11
66.43720606879084
 21
186.1294043261516
 31
0.0
  0
LINE
  5
B325
102
{ACAD_REACTORS
330
B35A
102
}
330
2
100
AcDbEntity
  8
OBJECT
100
AcDbLine
 10
49.29760390732164
 20
181.1294043261516
 30
0.0
 11
64.88847120369938
 21
181.1294043261516
 31
0.0
  0
LINE
  5
B326
102
{ACAD_REACTORS
330
B34B
102
}
330
2
100
AcDbEntity
  8
BACKGROUND
100
AcDbLine
 10
20.50897971264031
 20
184.1155577871226
 30
0.0
 11
19.75764504611343
 21
183.9044811494643
 31
0.0
  0
LINE
  5
B327
102
{ACAD_REACTORS
330
B34B
102
}
330
2
100
AcDbEntity
  8
BACKGROUND
100
AcDbLine
 10
19.75764504611343
 20
183.9044811494643
 30
0.0
 11
21.03192595163098
 21
183.7534042009616
 31
0.0
  0
LINE
  5
B328
102
{ACAD_REACTORS
330
B34B
102
}
330
2
100
AcDbEntity
  8
BACKGROUND
100
AcDbLine
 10
21.03192595163098
 20
183.7534042009616
 30
0.0
 11
20.33911289091518
 21
183.6575172390535
 31
0.0
  0
LINE
  5
B329
102
{ACAD_REACTORS
330
B34B
102
}
330
2
100
AcDbEntity
  8
BACKGROUND
100
AcDbLine
 10
20.33911289091518
 20
183.6575172390535
 30
0.0
 11
19.13804224300288
 21
180.4188679710427
 31
0.0
  0
LINE
  5
B32A
102
{ACAD_REACTORS
330
B35A
102
}
330
2
100
AcDbEntity
  8
ToiletSeat
100
AcDbLine
 10
65.74083180603915
 20
183.8812007167153
 30
0.0
 11
65.09164256525614
 21
183.7806788270221
 31
0.0
  0
LINE
  5
B32B
102
{ACAD_REACTORS
330
B35A
102
}
330
2
100
AcDbEntity
  8
ToiletSeat
100
AcDbLine
 10
65.09164256525614
 20
183.7806788270221
 30
0.0
 11
66.31672828172324
 21
183.6258097818934
 31
0.0
  0
LINE
  5
B32C
102
{ACAD_REACTORS
330
B35A
102
}
330
2
100
AcDbEntity
  8
ToiletSeat
100
AcDbLine
 10
66.31672828172324
 20
183.6258097818934
 30
0.0
 11
65.61485700169298
 21
183.474498423167
 31
0.0
  0
LINE
  5
B32D
102
{ACAD_REACTORS
330
B35A
102
}
330
2
100
AcDbEntity
  8
ToiletSeat
100
AcDbLine
 10
65.61485700169299
 20
183.474498423167
 30
0.0
 11
64.69824861022324
 21
180.5152818001991
 31
0.0
  0
HATCH
  5
B34B
330
2
100
AcDbEntity
  8
DIMENSIONS
100
AcDbHatch
 10
0.0
 20
0.0
 30
0.0
210
0.0
220
0.0
230
1.0
  2
AR-CONC
 70
     0
 71
     1
 91
        1
 92
        7
 72
     0
 73
     1
 93
        8
 10
31.54760390732165
 20
186.1294043261516
 10
21.25582562501453
 20
186.1294043261516
 10
20.50897971264031
 20
184.1155577871226
 10
19.75764504611345
 20
183.9044811494643
 10
21.03192595163097
 20
183.7534042009616
 10
20.33911289091517
 20
183.6575172390535
 10
19.40154850434005
 20
181.1294043261516
 10
31.54760390732165
 20
181.1294043261516
 97
        8
330
B317
330
B31F
330
B326
330
B327
330
B328
330
B329
330
B318
330
B322
 75
     0
 76
     1
 52
0.0
 41
1.0
 77
     0
 78
    13
 53
50.0
 43
0.0
 44
0.0
 45
7.172601826007533
 46
-0.6275213498259511
 79
     2
 49
0.75
 49
-8.25
 53
355.0
 43
0.0
 44
0.0
 45
-1.387513336129999
 46
7.521921337000118
 79
     2
 49
0.6
 49
-6.599999999999999
 53
100.4514
 43
0.5977168000000001
 44
-0.0522934
 45
5.785093817140215
 46
6.894395420609535
 79
     2
 49
0.6374019
 49
-7.011421119999999
 53
46.1842
 43
0.0
 44
2.0
 45
10.67241048625644
 46
-1.65519014329018
 79
     2
 49
1.125
 49
-12.375
 53
96.6356
 43
0.8893674499999999
 44
1.862066929999999
 45
9.346627055487031
 46
9.741178709004417
 79
     2
 49
0.9561028799999998
 49
-10.51713
 53
351.1842000000001
 43
0.0
 44
2.0
 45
9.346619451336271
 46
9.741186009253247
 79
     2
 49
0.9
 49
-9.9
 53
21.0
 43
1.0
 44
1.5
 45
5.969070521184616
 46
-4.026188906653387
 79
     2
 49
0.75
 49
-8.25
 53
326.0
 43
1.0
 44
1.5
 45
2.433153319215817
 46
7.25150045046853
 79
     2
 49
0.6
 49
-6.599999999999999
 53
71.45140000000001
 43
1.49742233
 44
1.164483939999999
 45
8.402226285814899
 46
3.225304967099523
 79
     2
 49
0.6374019
 49
-7.011421119999999
 53
37.5
 43
0.0
 44
0.0
 45
0.1215985531729064
 46
3.328938538313114
 79
     6
 49
0.0
 49
-6.519999999999999
 49
0.0
 49
-6.7
 49
0.0
 49
-6.625
 53
7.499999999999999
 43
0.0
 44
0.0
 45
2.630695374421486
 46
3.944117118823602
 79
     6
 49
0.0
 49
-3.819999999999999
 49
0.0
 49
-6.37
 49
0.0
 49
-2.524999999999999
 53
327.5
 43
-2.229999999999999
 44
0.0
 45
5.33822436172409
 46
-0.2255487173437977
 79
     6
 49
0.0
 49
-2.5
 49
0.0
 49
-7.799999999999999
 49
0.0
 49
-10.35
 53
317.5
 43
-3.229999999999999
 44
0.0
 45
5.831861693423862
 46
1.001049823323176
 79
     6
 49
0.0
 49
-3.25
 49
0.0
 49
-5.179999999999999
 49
0.0
 49
-7.349999999999999
 47
0.0230987628968333
 98
        1
 10
25.75584086494833
 20
184.0338829384219
1001
ACAD
1010
0.0
1020
0.0
1030
0.0
  0
HATCH
  5
B35A
330
2
100
AcDbEntity
  8
DIMENSIONS
100
AcDbHatch
 10
0.0
 20
0.0
 30
0.0
210
0.0
220
0.0
230
1.0
  2
AR-CONC
 70
     0
 71
     1
 91
        1
 92
        7
 72
     0
 73
     1
 93
        8
 10
49.29760390732165
 20
186.1294043261516
 10
49.29760390732164
 20
181.1294043261516
 10
64.88847120369938
 20
181.1294043261516
 10
65.61485700169299
 20
183.474498423167
 10
66.31672828172326
 20
183.6258097818934
 10
65.09164256525614
 20
183.7806788270221
 10
65.74083180603915
 20
183.8812007167153
 10
66.43720606879084
 20
186.1294043261516
 97
        8
330
B324
330
B323
330
B325
330
B32D
330
B32C
330
B32B
330
B32A
330
B320
 75
     0
 76
     1
 52
0.0
 41
1.0
 77
     0
 78
    13
 53
50.0
 43
0.0
 44
0.0
 45
7.172601826007533
 46
-0.6275213498259511
 79
     2
 49
0.75
 49
-8.25
 53
355.0
 43
0.0
 44
0.0
 45
-1.387513336129999
 46
7.521921337000118
 79
     2
 49
0.6
 49
-6.599999999999999
 53
100.4514
 43
0.5977168000000001
 44
-0.0522934
 45
5.785093817140215
 46
6.894395420609535
 79
     2
 49
0.6374019
 49
-7.011421119999999
 53
46.1842
 43
0.0
 44
2.0
 45
10.67241048625644
 46
-1.65519014329018
 79
     2
 49
1.125
 49
-12.375
 53
96.6356
 43
0.8893674499999999
 44
1.862066929999999
 45
9.346627055487031
 46
9.741178709004417
 79
     2
 49
0.9561028799999998
 49
-10.51713
 53
351.1842000000001
 43
0.0
 44
2.0
 45
9.346619451336271
 46
9.741186009253247
 79
     2
 49
0.9
 49
-9.9
 53
21.0
 43
1.0
 44
1.5
 45
5.969070521184616
 46
-4.026188906653387
 79
     2
 49
0.75
 49
-8.25
 53
326.0
 43
1.0
 44
1.5
 45
2.433153319215817
 46
7.25150045046853
 79
     2
 49
0.6
 49
-6.599999999999999
 53
71.45140000000001
 43
1.49742233
 44
1.164483939999999
 45
8.402226285814899
 46
3.225304967099523
 79
     2
 49
0.6374019
 49
-7.011421119999999
 53
37.5
 43
0.0
 44
0.0
 45
0.1215985531729064
 46
3.328938538313114
 79
     6
 49
0.0
 49
-6.519999999999999
 49
0.0
 49
-6.7
 49
0.0
 49
-6.625
 53
7.499999999999999
 43
0.0
 44
0.0
 45
2.630695374421486
 46
3.944117118823602
 79
     6
 49
0.0
 49
-3.819999999999999
 49
0.0
 49
-6.37
 49
0.0
 49
-2.524999999999999
 53
327.5
 43
-2.229999999999999
 44
0.0
 45
5.33822436172409
 46
-0.2255487173437977
 79
     6
 49
0.0
 49
-2.5
 49
0.0
 49
-7.799999999999999
 49
0.0
 49
-10.35
 53
317.5
 43
-3.229999999999999
 44
0.0
 45
5.831861693423862
 46
1.001049823323176
 79
     6
 49
0.0
 49
-3.25
 49
0.0
 49
-5.179999999999999
 49
0.0
 49
-7.349999999999999
 47
0.0181505250061355
 98
        1
 10
57.52003501536076
 20
184.0864477656047
1001
ACAD
1010
0.0
1020
0.0
1030
0.0
  0
ENDSEC
  0
SECTION
  2
OBJECTS
  0
DICTIONARY
  5
577
330
0
100
AcDbDictionary
281
     1
  3
ACAD_COLOR
350
5F0
  3
ACAD_GROUP
350
575
  3
ACAD_LAYOUT
350
5E1
  3
ACAD_MATERIAL
350
5EF
  3
ACAD_MLINESTYLE
350
576
  3
ACAD_PLOTSETTINGS
350
5E2
  3
ACAD_PLOTSTYLENAME
350
5DF
  3
ACAD_TABLESTYLE
350
653
  3
ACAD_VBA
350
92DC
  3
ACAD_VISUALSTYLE
350
642
  3
ACDBHEADERROUNDTRIPXREC
350
A8DA
  3
AcDbVariableDictionary
350
5E8
  3
ASE_INDEX_DICTIONARY
350
4B5C
  3
BNS_SELSET
350
5DB
  0
DICTIONARY
  5
698
330
570
100
AcDbDictionary
280
     1
281
     1
  0
DICTIONARY
  5
960
330
569
100
AcDbDictionary
280
     1
281
     1
  3
ACAD_LAYERFILTERS
360
AB5C
  3
ACAD_LAYERSTATES
360
4C58
  3
ACLYDICTIONARY
360
AB5B
  0
DICTIONARY
  5
983
330
2
100
AcDbDictionary
280
     1
281
     1
  3
ACAD_SORTENTS
360
984
  0
DICTIONARY
  5
F5
330
F4
100
AcDbDictionary
280
     1
281
     1
  3
ACAD_BLKREFS
360
F6
  0
DICTIONARY
  5
5F0
102
{ACAD_REACTORS
330
577
102
}
330
577
100
AcDbDictionary
281
     1
  0
DICTIONARY
  5
575
102
{ACAD_REACTORS
330
577
102
}
330
577
100
AcDbDictionary
281
     1
  3
*A1
350
7DDF
  0
DICTIONARY
  5
5E1
102
{ACAD_REACTORS
330
577
102
}
330
577
100
AcDbDictionary
281
     1
  3
Layout1
350
5E4
  3
Model
350
5E3
  0
DICTIONARY
  5
5EF
102
{ACAD_REACTORS
330
577
102
}
330
577
100
AcDbDictionary
281
     1
  3
ByBlock
350
640
  3
ByLayer
350
63F
  3
Global
350
641
  0
DICTIONARY
  5
576
102
{ACAD_REACTORS
330
577
102
}
330
577
100
AcDbDictionary
281
     1
  3
STANDARD
350
578
  0
DICTIONARY
  5
5E2
102
{ACAD_REACTORS
330
577
102
}
330
577
100
AcDbDictionary
281
     1
  0
ACDBDICTIONARYWDFLT
  5
5DF
102
{ACAD_REACTORS
330
577
102
}
330
577
100
AcDbDictionary
281
     1
  3
Normal
350
5E0
100
AcDbDictionaryWithDefault
340
5E0
  0
DICTIONARY
  5
653
102
{ACAD_REACTORS
330
577
102
}
330
577
100
AcDbDictionary
281
     1
  3
Standard
350
654
  0
DICTIONARY
  5
92DC
102
{ACAD_REACTORS
330
577
102
}
330
577
100
AcDbDictionary
281
     1
  3
VBAProject
350
92DD
  0
DICTIONARY
  5
642
102
{ACAD_REACTORS
330
577
102
}
330
577
100
AcDbDictionary
281
     1
  3
2dWireframe
350
648
  3
3D Hidden
350
64A
  3
3dWireframe
350
649
  3
Basic
350
647
  3
Brighten
350
64E
  3
ColorChange
350
652
  3
Conceptual
350
64B
  3
Dim
350
64D
  3
Facepattern
350
651
  3
Flat
350
643
  3
FlatWithEdges
350
644
  3
Gouraud
350
645
  3
GouraudWithEdges
350
646
  3
Linepattern
350
650
  3
Realistic
350
64C
  3
Thicken
350
64F
  0
DICTIONARY
  5
A8DA
102
{ACAD_REACTORS
330
577
102
}
330
577
100
AcDbDictionary
281
     1
  3
COLORDICT
350
A8DC
  3
MATERIALDICT
350
A8DB
  0
DICTIONARY
  5
5E8
102
{ACAD_REACTORS
330
577
102
}
330
577
100
AcDbDictionary
281
     1
  3
CTABLESTYLE
350
6A6
  3
DIMASSOC
350
5E9
  3
INDEXCTL
350
6A8
  3
PROJECTNAME
350
5FB
  3
SORTENTS
350
6A7
  0
DICTIONARY
  5
4B5C
102
{ACAD_REACTORS
330
577
102
}
330
577
100
AcDbDictionary
281
     1
  3
ASEBlockHierarchyIndexRecord
350
4B5E
1001
DCO15
1040
1678536556.346
  0
DICTIONARY
  5
5DB
102
{ACAD_REACTORS
330
577
102
}
330
577
100
AcDbDictionary
281
     1
  3
BNS_SS01
350
5DC
  0
DICTIONARY
  5
AB5C
102
{ACAD_REACTORS
330
960
102
}
330
960
100
AcDbDictionary
281
     1
  0
DICTIONARY
  5
4C58
102
{ACAD_REACTORS
330
960
102
}
330
960
100
AcDbDictionary
281
     1
  0
DICTIONARY
  5
AB5B
102
{ACAD_REACTORS
330
960
102
}
330
960
100
AcDbDictionary
281
     1
1001
ACAD
1000
<All
  0
SORTENTSTABLE
  5
984
102
{ACAD_REACTORS
330
983
102
}
330
983
100
AcDbSortentsTable
330
2
331
193
  5
1014
331
9B02
  5
9B02
331
1B3
  5
1019
331
9B0A
  5
9D07
331
F2
  5
926
331
1C3
  5
101C
331
9BAA
  5
9DC6
331
A096
  5
A0B1
331
9BE8
  5
9DC8
331
9DC7
  5
A039
331
1D3
  5
1020
331
8BE8
  5
8BE7
331
7652
  5
7653
331
9ACB
  5
9ACB
331
7A21
  5
7A29
331
B317
  5
9B0A
331
B31F
  5
B326
331
AB6A
  5
B317
331
B327
  5
B32B
331
AB82
  5
B323
331
194
  5
1017
331
1B4
  5
101A
331
9B03
  5
9B03
331
F3
  5
927
331
767A
  5
767C
331
A097
  5
A0B7
331
9BE9
  5
9DC9
331
8BE9
  5
8BE8
331
1D4
  5
1021
331
11D
  5
92D
331
9ACC
  5
9ACC
331
7653
  5
7676
331
B318
  5
9BE8
331
9DC8
  5
A03A
331
A0B7
  5
A97F
331
B320
  5
B328
331
AB7B
  5
B31F
331
A038
  5
A093
331
AB83
  5
B318
331
9B04
  5
9B04
331
B328
  5
B32C
331
A090
  5
A099
331
A098
  5
A0B8
331
7903
  5
7908
331
1D5
  5
1022
331
11E
  5
92E
331
8BEA
  5
8BEA
331
7A23
  5
8BE9
331
9AE5
  5
9AE5
331
9DC9
  5
A03B
331
A0B0
  5
A928
331
A0B8
  5
AA4E
331
A039
  5
A094
331
AB84
  5
B324
331
9B05
  5
9B05
331
B329
  5
B327
331
A091
  5
A09A
331
A099
  5
A0BA
331
AB5D
  5
AB85
331
7
  5
7
331
D6
  5
6D3
331
7A24
  5
7A2D
331
9AFE
  5
9AFE
331
A0B1
  5
A937
331
9DCA
  5
A03C
331
B322
  5
9CEE
331
AB6D
  5
AB84
331
A03A
  5
A095
331
AB85
  5
B325
331
9B06
  5
9B06
331
9B0E
  5
9DC5
331
92FF
  5
92FF
331
B32A
  5
B32D
331
A092
  5
A09B
331
A09A
  5
A0BB
331
79BD
  5
79C2
331
D7
  5
91D
331
9AFF
  5
9AFF
331
B35A
  5
9B0E
331
9DCB
  5
A03D
331
A0BA
  5
AA4F
331
B323
  5
9DC4
331
A03B
  5
A096
331
B32B
  5
B32E
331
A093
  5
A09C
331
A09B
  5
A2C1
331
B34B
  5
9B09
331
9DC4
  5
9DCD
331
1D0
  5
101D
331
7A0E
  5
7A13
331
9DCC
  5
A090
331
A0BB
  5
AB73
331
B324
  5
9BE7
331
AB7F
  5
B320
331
A03C
  5
A097
331
A8B1
  5
AB80
331
191
  5
92F
331
9B00
  5
9B00
331
9B08
  5
9B08
331
7677
  5
7679
331
B32C
  5
B33D
331
A094
  5
A0A1
331
A09C
  5
A59B
331
9DC5
  5
9DCE
331
1D1
  5
101E
331
9DCD
  5
A091
331
B325
  5
9BE9
331
AB80
  5
B321
331
A03D
  5
A098
331
A59B
  5
AB7C
331
192
  5
930
331
9B01
  5
9B01
331
9B09
  5
9C7E
331
7678
  5
767A
331
1C2
  5
101B
331
B32D
  5
B329
331
A095
  5
A0B0
331
9BE7
  5
9DC7
331
9DC6
  5
A038
331
8BE7
  5
8BE2
331
1D2
  5
101F
331
3
  5
3
331
7A20
  5
7A28
331
9DCE
  5
A092
331
B326
  5
B32A
331
AB81
  5
B322
  0
IDBUFFER
  5
F6
102
{ACAD_REACTORS
330
F5
102
}
330
F5
100
AcDbIdBuffer
  0
GROUP
  5
7DDF
102
{ACAD_REACTORS
330
575
102
}
330
575
100
AcDbGroup
300

 70
     0
 71
     1
  0
LAYOUT
  5
5E4
102
{ACAD_REACTORS
330
5E1
102
}
330
5E1
100
AcDbPlotSettings
  1

  2
HP LaserJet 4100 Series PCL
  4

  6

 40
0.0
 41
0.0
 42
0.0
 43
0.0
 44
0.0
 45
0.0
 46
0.0
 47
0.0
 48
0.0
 49
0.0
140
0.0
141
0.0
142
1.0
143
1.0
 70
   688
 72
     0
 73
     0
 74
     5
  7
monochrome.ctb
 75
    16
147
1.0
 76
     0
 77
     2
 78
   300
148
0.0
149
0.0
100
AcDbLayout
  1
Layout1
 70
     1
 71
     1
 10
0.0
 20
0.0
 11
12.0
 21
9.0
 12
0.0
 22
0.0
 32
0.0
 14
1.000000000000000E+20
 24
1.000000000000000E+20
 34
1.000000000000000E+20
 15
-1.000000000000000E+20
 25
-1.000000000000000E+20
 35
-1.000000000000000E+20
146
0.0
 13
0.0
 23
0.0
 33
0.0
 16
1.0
 26
0.0
 36
0.0
 17
0.0
 27
1.0
 37
0.0
 76
     0
330
566
  0
LAYOUT
  5
5E3
102
{ACAD_REACTORS
330
5E1
102
}
330
5E1
100
AcDbPlotSettings
  1

  2
Adobe PDF
  4
Letter
  6

 40
3.174999952316284
 41
3.174999952316284
 42
3.175003051757812
 43
3.17498779296875
 44
215.8999938964844
 45
279.3999938964844
 46
0.762
 47
0.0
 48
-11.2600662440052
 49
157.3110845985335
140
68.76191034364069
141
262.3228117958671
142
1.0
143
7.815972870661513
 70
 11956
 72
     0
 73
     0
 74
     1
  7
monochrome.ctb
 75
     0
147
0.1279431257692382
 76
     0
 77
     2
 78
   300
148
280.6977157638444
149
-4158.39426367041
100
AcDbLayout
  1
Model
 70
     1
 71
     0
 10
0.0
 20
0.0
 11
12.0
 21
9.0
 12
0.0
 22
0.0
 32
0.0
 14
0.0
 24
0.0
 34
0.0
 15
0.0
 25
0.0
 35
0.0
146
0.0
 13
0.0
 23
0.0
 33
0.0
 16
1.0
 26
0.0
 36
0.0
 17
0.0
 27
1.0
 37
0.0
 76
     0
330
2
331
A8D8
1001
ACAD_PSEXT
1000
My Brother Printer
1000
Brother HL-2040 series
1000
IP_10.2.1.199
1000

1070
     0
  0
MATERIAL
  5
640
102
{ACAD_REACTORS
330
5EF
102
}
330
5EF
100
AcDbMaterial
  1
ByBlock
  0
MATERIAL
  5
63F
102
{ACAD_REACTORS
330
5EF
102
}
330
5EF
100
AcDbMaterial
  1
ByLayer
  0
MATERIAL
  5
641
102
{ACAD_REACTORS
330
5EF
102
}
330
5EF
100
AcDbMaterial
  1
Global
  0
MLINESTYLE
  5
578
102
{ACAD_REACTORS
330
576
102
}
330
576
100
AcDbMlineStyle
  2
STANDARD
 70
     0
  3

 62
     0
 51
90.0
 52
90.0
 71
     2
 49
0.5
 62
   256
  6
BYLAYER
 49
-0.5
 62
   256
  6
BYLAYER
  0
ACDBPLACEHOLDER
  5
5E0
102
{ACAD_REACTORS
330
5DF
102
}
330
5DF
  0
TABLESTYLE
  5
654
102
{ACAD_REACTORS
330
653
102
}
330
653
100
AcDbTableStyle
  3
Standard
 70
     0
 71
     0
 40
0.06
 41
0.06
280
     0
281
     0
  7
STANDARD
140
0.18
170
     2
 62
     0
 63
     7
283
     0
 90
      512
 91
        0
  1

274
    -2
284
     1
 64
     0
275
    -2
285
     1
 65
     0
276
    -2
286
     1
 66
     0
277
    -2
287
     1
 67
     0
278
    -2
288
     1
 68
     0
279
    -2
289
     1
 69
     0
  7
STANDARD
140
0.25
170
     5
 62
     0
 63
     7
283
     0
 90
      512
 91
        0
  1

274
    -2
284
     1
 64
     0
275
    -2
285
     1
 65
     0
276
    -2
286
     1
 66
     0
277
    -2
287
     1
 67
     0
278
    -2
288
     1
 68
     0
279
    -2
289
     1
 69
     0
  7
STANDARD
140
0.18
170
     5
 62
     0
 63
     7
283
     0
 90
      512
 91
        0
  1

274
    -2
284
     1
 64
     0
275
    -2
285
     1
 65
     0
276
    -2
286
     1
 66
     0
277
    -2
287
     1
 67
     0
278
    -2
288
     1
 68
     0
279
    -2
289
     1
 69
     0
1001
ACAD
1000
AcRTDxfName
1000
TABLESTYLE
1000
AcRTDxfName
1000
TABLESTYLE
1000
AcRTDxfName
1000
TABLESTYLE
1000
AcRTDxfName
1000
TABLESTYLE
1000
AcRTDxfName
1000
TABLESTYLE
1000
AcRTDxfName
1000
TABLESTYLE
1000
AcRTDxfName
1000
TABLESTYLE
1000
AcRTDxfName
1000
TABLESTYLE
1000
AcRTDxfName
1000
TABLESTYLE
1000
AcRTDxfName
1000
TABLESTYLE
1000
AcRTDxfName
1000
TABLESTYLE
1000
AcRTDxfName
1000
TABLESTYLE
1000
AcRTDxfName
1000
TABLESTYLE
1000
AcRTDxfName
1000
TABLESTYLE
1000
AcRTDxfName
1000
TABLESTYLE
1000
AcRTDxfName
1000
TABLESTYLE
1000
AcRTDxfName
1000
TABLESTYLE
1000
AcRTDxfName
1000
TABLESTYLE
1000
AcRTDxfName
1000
TABLESTYLE
1000
AcRTDxfName
1000
TABLESTYLE
1000
AcRTDxfName
1000
TABLESTYLE
1000
AcRTDxfName
1000
TABLESTYLE
1000
AcRTDxfName
1000
TABLESTYLE
1000
AcRTDxfName
1000
TABLESTYLE
1000
AcRTDxfName
1000
TABLESTYLE
1000
AcRTDxfName
1000
TABLESTYLE
1000
AcRTDxfName
1000
TABLESTYLE
1000
AcRTDxfName
1000
TABLESTYLE
1000
AcRTDxfName
1000
TABLESTYLE
1000
AcRTDxfName
1000
TABLESTYLE
1000
AcRTDxfName
1000
TABLESTYLE
  0
VBA_PROJECT
  5
92DD
102
{ACAD_REACTORS
330
92DC
102
}
330
92DC
100
AcDbVbaProject
 90
     7168
310
D0CF11E0A1B11AE1000000000000000000000000000000003E000300FEFF0900060000000000000000000000010000000100000000000000001000000200000001000000FEFFFFFF0000000000000000FFFFFFFFFFFFFFFFFFFFFFFFFFFFFFFFFFFFFFFFFFFFFFFFFFFFFFFFFFFFFFFFFFFFFFFFFFFFFFFFFFFFFFFFFFFFFF
310
FFFFFFFFFFFFFFFFFFFFFFFFFFFFFFFFFFFFFFFFFFFFFFFFFFFFFFFFFFFFFFFFFFFFFFFFFFFFFFFFFFFFFFFFFFFFFFFFFFFFFFFFFFFFFFFFFFFFFFFFFFFFFFFFFFFFFFFFFFFFFFFFFFFFFFFFFFFFFFFFFFFFFFFFFFFFFFFFFFFFFFFFFFFFFFFFFFFFFFFFFFFFFFFFFFFFFFFFFFFFFFFFFFFFFFFFFFFFFFFFFFFFFFFFFFFFFF
310
FFFFFFFFFFFFFFFFFFFFFFFFFFFFFFFFFFFFFFFFFFFFFFFFFFFFFFFFFFFFFFFFFFFFFFFFFFFFFFFFFFFFFFFFFFFFFFFFFFFFFFFFFFFFFFFFFFFFFFFFFFFFFFFFFFFFFFFFFFFFFFFFFFFFFFFFFFFFFFFFFFFFFFFFFFFFFFFFFFFFFFFFFFFFFFFFFFFFFFFFFFFFFFFFFFFFFFFFFFFFFFFFFFFFFFFFFFFFFFFFFFFFFFFFFFFFFF
310
FFFFFFFFFFFFFFFFFFFFFFFFFFFFFFFFFFFFFFFFFFFFFFFFFFFFFFFFFFFFFFFFFFFFFFFFFFFFFFFFFFFFFFFFFFFFFFFFFFFFFFFFFFFFFFFFFFFFFFFFFFFFFFFFFFFFFFFFFFFFFFFFFFFFFFFFFFFFFFFFFFFFFFFFFFFFFFFFFFFFFFFFFFFFFFFFFFFFFFFFFFFFFFFFFFFFFFFFFFFFFFFFFFFFFFFFFFFFFFFFFFFFFFFFFFFFFF
310
FFFFFFFFFDFFFFFF04000000FEFFFFFF050000000C000000060000000700000008000000090000000A0000000B000000FEFFFFFFFEFFFFFFFFFFFFFFFFFFFFFFFFFFFFFFFFFFFFFFFFFFFFFFFFFFFFFFFFFFFFFFFFFFFFFFFFFFFFFFFFFFFFFFFFFFFFFFFFFFFFFFFFFFFFFFFFFFFFFFFFFFFFFFFFFFFFFFFFFFFFFFFFFFFF
310
FFFFFFFFFFFFFFFFFFFFFFFFFFFFFFFFFFFFFFFFFFFFFFFFFFFFFFFFFFFFFFFFFFFFFFFFFFFFFFFFFFFFFFFFFFFFFFFFFFFFFFFFFFFFFFFFFFFFFFFFFFFFFFFFFFFFFFFFFFFFFFFFFFFFFFFFFFFFFFFFFFFFFFFFFFFFFFFFFFFFFFFFFFFFFFFFFFFFFFFFFFFFFFFFFFFFFFFFFFFFFFFFFFFFFFFFFFFFFFFFFFFFFFFFFFFFFF
310
FFFFFFFFFFFFFFFFFFFFFFFFFFFFFFFFFFFFFFFFFFFFFFFFFFFFFFFFFFFFFFFFFFFFFFFFFFFFFFFFFFFFFFFFFFFFFFFFFFFFFFFFFFFFFFFFFFFFFFFFFFFFFFFFFFFFFFFFFFFFFFFFFFFFFFFFFFFFFFFFFFFFFFFFFFFFFFFFFFFFFFFFFFFFFFFFFFFFFFFFFFFFFFFFFFFFFFFFFFFFFFFFFFFFFFFFFFFFFFFFFFFFFFFFFFFFFF
310
FFFFFFFFFFFFFFFFFFFFFFFFFFFFFFFFFFFFFFFFFFFFFFFFFFFFFFFFFFFFFFFFFFFFFFFFFFFFFFFFFFFFFFFFFFFFFFFFFFFFFFFFFFFFFFFFFFFFFFFFFFFFFFFFFFFFFFFFFFFFFFFFFFFFFFFFFFFFFFFFFFFFFFFFFFFFFFFFFFFFFFFFFFFFFFFFFFFFFFFFFFFFFFFFFFFFFFFFFFFFFFFFFFFFFFFFFFFFFFFFFFFFFFFFFFFFFF
310
FFFFFFFFFFFFFFFF52006F006F007400200045006E00740072007900000000000000000000000000000000000000000000000000000000000000000000000000000000000000000016000500FFFFFFFFFFFFFFFF0100000000000000000000000000000000000000000000000000000000000000605637544AC9D001030000
310
00800E0000000000005600420041005F00500072006F006A0065006300740000000000000000000000000000000000000000000000000000000000000000000000000000000000000018000101FFFFFFFF08000000060000000000000000000000000000000000000000000000605637544AC9D001605637544AC9D0010000
310
000000000000000000005600420041000000000000000000000000000000000000000000000000000000000000000000000000000000000000000000000000000000000000000000000008000100FFFFFFFFFFFFFFFF040000000000000000000000000000000000000000000000605637544AC9D001605637544AC9D00100
310
00000000000000000000006400690072000000000000000000000000000000000000000000000000000000000000000000000000000000000000000000000000000000000000000000000008000200FFFFFFFFFFFFFFFFFFFFFFFF000000000000000000000000000000000000000000000000000000000000000000000000
310
000000003C0100000000000001000000020000000300000004000000FEFFFFFF060000000700000008000000090000000A0000000B0000000C0000000D0000000E0000000F0000001000000011000000120000001300000014000000FEFFFFFF160000001700000018000000190000001A0000001B0000001C0000001D0000
310
001E0000001F000000200000002100000022000000230000002400000025000000260000002700000028000000290000002A0000002B0000002C0000002D0000002E0000002F0000003000000031000000FEFFFFFF3300000034000000350000003600000037000000FEFFFFFFFEFFFFFFFEFFFFFFFFFFFFFFFFFFFFFFFFFF
310
FFFFFFFFFFFFFFFFFFFFFFFFFFFFFFFFFFFFFFFFFFFFFFFFFFFFFFFFFFFFFFFFFFFFFFFFFFFFFFFFFFFFFFFFFFFFFFFFFFFFFFFFFFFFFFFFFFFFFFFFFFFFFFFFFFFFFFFFFFFFFFFFFFFFFFFFFFFFFFFFFFFFFFFFFFFFFFFFFFFFFFFFFFFFFFFFFFFFFFFFFFFFFFFFFFFFFFFFFFFFFFFFFFFFFFFFFFFFFFFFFFFFFFFFFFFFFF
310
FFFFFFFFFFFFFFFFFFFFFFFFFFFFFFFFFFFFFFFFFFFFFFFFFFFFFFFFFFFFFFFFFFFFFFFFFFFFFFFFFFFFFFFFFFFFFFFFFFFFFFFFFFFFFFFFFFFFFFFFFFFFFFFFFFFFFFFFFFFFFFFFFFFFFFFFFFFFFFFFFFFFFFFFFFFFFFFFFFFFFFFFFFFFFFFFFFFFFFFFFFFFFFFFFFFFFFFFFFFFFFFFFFFFFFFFFFFFFFFFFFFFFFFFFFFFFF
310
FFFFFFFFFFFFFFFFFFFFFFFFFFFFFFFF0138B1800100040000000100302A020290090070140648030082020064E40404000B001C004143414450726F6A10656374050038000040D5021406020A3D020A07027401140A080612090212547AF4532803000C024A3C020A16000101727374646F6C653E0102197300740064006F
310
00006C0065000D00680500255E00032A5C477B3000303032303433302D3B0008040443000A020E011230300034367D23322E3023003023433A5C57494E00444F57535C7379734074656D33325C036532002E746C62234F4C4500204175746F6D617458696F6E003000010F0274014400138203AB0219027854006869734472
310
617769A06E67470016001354004A006900730044007200006100770069006E00A867001A0D163218161C002328000048820231828C25035800001E8204010A2C82403154DC2282102B8202108202000000000116010000F0000000C4020000D400000000020000FFFFFFFFCB0200001F0300000000000001000000AB0231DC
310
0000FFFF2300000088000000B600FFFF010100000000FFFFFFFF00000000FFFFFFFFFFFF00000000000000000000000000000000000000000000000000000000000000000000000000000000000000000000000000000000000010000000030000000500000007000000FFFFFFFFFFFFFFFF010108000000FFFFFFFF780000
310
00080000000000000000000000000000000000005400680069007300440072006100770069006E006700000000000000000000000000000000000000000000000000000000000000000000000000000000000000180002010300000005000000FFFFFFFF000000000000000000000000000000000000000000000000000000
310
00000000000000000005000000E5030000000000005F005600420041005F00500052004F004A00450043005400000000000000000000000000000000000000000000000000000000000000000000000000000000001A000200FFFFFFFFFFFFFFFFFFFFFFFF0000000000000000000000000000000000000000000000000000
310
00000000000000000000150000002C07000000000000500052004F004A004500430054000000000000000000000000000000000000000000000000000000000000000000000000000000000000000000000000000000100002010200000007000000FFFFFFFF00000000000000000000000000000000000000000000000000
310
0000000000000000000000320000004D01000000000000500052004F004A0045004300540077006D000000000000000000000000000000000000000000000000000000000000000000000000000000000000000000000014000200FFFFFFFFFFFFFFFFFFFFFFFF000000000000000000000000000000000000000000000000
310
0000000000000000000000003800000026000000000000000000000000000000000000000000FFFF000000004D450000FFFFFFFFFFFF00000000FFFF00000000FFFF010100000000DF00FFFF000000000C00FFFFFFFFFFFFFFFFFFFFFFFFFFFFFFFFFFFFFFFFFFFFFFFFFFFFFFFFFFFFFFFFFFFFFFFFFFFFFFFFFFFFFFFFFF
310
FFFFFFFFFFFFFFFFFFFFFFFFFFFFFFFFFFFFFFFFFFFFFFFFFFFFFFFFFFFFFFFFFFFFFFFFFFFFFFFFFFFFFFFFFFFFFFFFFFFFFFFFFFFFFFFFFFFFFFFFFFFFFFFFFFFFFFFFFFFFFFFFFFFFFFFFFFFFFFFFFFFFFF280000000200534CFFFFFFFF000001005310FFFFFFFF000001005394FFFFFFFF00000000023CFFFFFFFF0000
310
FFFF01010000000001004E0030007B00370041004100420042004200390035002D0037003900420045002D0034004300300046002D0038003000320034002D004500420036004100460032003700310032003300310043007D0000000000FFFFFFFF0101380000000280FEFFFFFFFFFF1000FFFF280000000201FFFF000000
310
0000000000FFFFFFFFFFFFFFFF000000001D00000025000000FFFFFFFF480000000000FFFF000001000000000000000000FFFFFFFFFFFFFFFFFFFFFFFF00000000FFFFFFFFFFFFFFFFFFFFFFFFFFFFFFFFFFFFFFFF00000000FFFFFFFFFFFFFFFFFFFFFFFFFFFFFFFFFFFFFFFF0000000000000000FFFFFFFFFFFFFFFF0000
310
0000FFFFFFFFFFFFFFFFFFFFFFFFFFFFFFFFFFFFFFFFFFFFFFFFFFFFFFFFFFFF000000000000DF000000000000000000000000000000000000000000000000000000000000000000000000000000000000000000000000000000000000000000000000FECA01000000FFFFFFFF010108000000FFFFFFFF78000000FFFFFFFF
310
000001BCB000417474726962757400652056425F4E616D0065203D2022546869007344726177696E6788220D0A0A88426173028800307B3741414242420039352D373942452D00344330462D38303200342D454236414632803731323331437D0D7C40476C6F62616C01CE5308706163019246616C7302650C644372656174
310
6104626C151F507265646548636C610006496400B0540472750D424578706F730265141C54656D706C61807465446572697602120192427573746F6D697A0304440332000000000000000000000000000000000000000000000000000000CC616D00000100FF0904000009040000E404010000000000000000000100030002
310
00FA002A005C0047007B00300030003000320030003400450046002D0030003000300030002D0030003000300030002D0043003000300030002D003000300030003000300030003000300030003000340036007D00230034002E00300023003900230043003A005C00500052004F004700520041007E0032005C0043004F00
310
4D004D004F004E007E0031005C004D004900430052004F0053007E0031005C005600420041005C0056004200410036005C0056004200450036002E0044004C004C002300560069007300750061006C00200042006100730069006300200046006F00720020004100700070006C00690063006100740069006F006E00730000
310
000000000000000000000016012A005C0047007B00380035003100410034003500360031002D0046003400450043002D0034003600330031002D0039004200300043002D004500370044004300340030003700350031003200430039007D00230031002E00300023003000230043003A005C00500072006F00670072006100
310
6D002000460069006C00650073002000280078003800360029005C0043006F006D006D006F006E002000460069006C00650073005C004100750074006F006400650073006B0020005300680061007200650064005C0061006300610078003100370065006E0075002E0074006C00620023004100750074006F004300410044
310
00200032003000300037002000540079007000650020004C00690062007200610072007900000000000000000000000000BC002A005C0047007B00300030003000320030003400330030002D0030003000300030002D0030003000300030002D0043003000300030002D003000300030003000300030003000300030003000
310
340036007D00230032002E00300023003000230043003A005C00570049004E0044004F00570053005C00730079007300740065006D00330032005C007300740064006F006C00650032002E0074006C00620023004F004C00450020004100750074006F006D006100740069006F006E00000000000000000000000000010002
310
0004000402000006020100080200000A0201000C02FFFFFFFFFFFF00000000FFFF0000547AF4530300FFFFFFFFFFFFFFFFFFFFFFFFFFFFFFFFFFFFFFFFFFFFFFFFFFFFFFFFFFFFFFFFFFFFFFFFFFFFFFFFFFFFFFFFFFFFFFFFFFFFFFFFFFFFFFFFFFFF0000FFFFFFFF0100000000000000000000000000000000000000AB02
310
010016005400680069007300440072006100770069006E00670014003000310035003700370038006500380036003100FFFF110216005400680069007300440072006100770069006E006700FFFF31DC000000000000000200000025030000FFFFFFFFFFFF010120020000FFFFFFFFFFFFFFFFFFFFFFFFFFFFFFFFFFFFFFFF
310
FFFFFFFFFFFFFFFFFFFFFFFFFFFFFFFFFFFFFFFFFFFFFFFFFFFFFFFFFFFFFFFFFFFFFFFFFFFFFFFFFFFFFFFFFFFFFFFFFFFFFFFFFFFFFFFFFFFFFFFFFFFFFFFFFFFFFFFFFFFFFFFFFFFFFFFFFFFFFFFFFFFFFFFFFFFFFFFFFFFFFFFFFFFFFFFFFFFFFFFFFFFFFFFFFFFFFFFFFFFFFFFFFFFFFFFFFFFFFFFFFFFFFFFFFFFFFF
310
FFFFFFFFFFFFFFFFFFFFFFFFFFFFFFFFFFFFFFFFFFFFFFFFFFFFFFFFFFFFFFFFFFFFFFFFFFFFFFFFFFFFFFFFFFFFFFFFFFFFFFFFFFFFFFFFFFFFFFFFFFFFFFFFFFFFFFFFFFFFFFFFFFFFFFFFFFFFFFFFFFFFFFFFFFFFFFFFFFFFFFFFFFFFFFFFFFFFFFFFFFFFFFFFFFFFFFFFFFFFFFFFFFFFFFFFFFFFFFFFFFFFFFFFFFFFFF
310
FFFFFFFFFFFFFFFFFFFFFFFFFFFFFFFFFFFFFFFFFFFFFFFFFFFFFFFFFFFFFFFFFFFFFFFFFFFFFFFFFFFFFFFFFFFFFFFFFFFFFFFFFFFFFFFFFFFFFFFFFFFFFFFFFFFFFFFFFFFFFFFFFFFFFFFFFFFFFFFFFFFFFFFFFFFFFFFFFFFFFFFFFFFFFFFFFFFFFFFFFFFFFFFFFFFFFFFFFFFFFFFFFFFFFFFFFFFFFFFFFFFFFFFFFFFF00
310
020000FFFFFFFFFFFFFFFFFFFFFFFFFFFFFFFFFFFFFFFFFFFFFFFFFFFFFFFFFFFFFFFFFFFFFFFFFFFFFFFFFFFFFFFFFFFFFFFFFFFFFFFFFFFFFFFFFFFFFFFFFFFFFFFFFFFFFFFFFFFFFFFFFFFFFFFFFFFFFFFFFFFFFFFFFFFFFFFFFFFFFFFFFFFFFFFFFFFFFFFFFFFFFFFFFFFFFFFF133A7643A841AA4A84340F16498E41D6
310
FFFFFFFF01000000FFFFFFFF600000008000000000000A010B00FF006025000007044175746F43414422F810000304564241F7E21000050457696E3136C17E1000050457696E3332077F100003044D6163B3B21000040456424136AD2310000B044143414450726F6A656374A6D4100006007374646F6C65936010000B0454
310
68697344726177696E67B935100009800000FF03FFFF5F4576616C7561746518D910000C0441636164446F63756D656E741B5A100002FFFF01013C000000FFFFFFFFFFFFFFFFFFFFFFFF0C02FFFFFFFF0E020200FFFF110200000400FFFFFFFFFFFF00020100FFFF02020000FFFFFFFFFFFFFFFFFFFFFFFFFFFF04000A0000
310
00010012000000000000000000000000000000000000000000000000000000000000000000000000000000000049443D227B43303238333532342D374631422D344641302D423043342D3536444639453837363037447D220D0A446F63756D656E743D5468697344726177696E672F264830303030303030300D0A4E616D65
310
3D224143414450726F6A656374220D0A48656C70436F6E7465787449443D2230220D0A56657273696F6E436F6D70617469626C6533323D22333933323232303030220D0A434D473D223035303744424343324446313331463133314631333146313331220D0A4450423D223245324346303233333036353538363635383636
310
3538220D0A47433D2235373535383931413942364143353642433536423341220D0A0D0A5B486F737420457874656E64657220496E666F5D0D0A264830303030303030313D7B33383332443634302D434639302D313143462D384534332D3030413043393131303035417D3B5642453B264830303030303030300D0A000000
310
0000000000000000000000000000000000000000000000000000000000000000000000000000000000000000000000005468697344726177696E67005400680069007300440072006100770069006E006700000000000000000000000000000000000000000000000000000000000000100000000200000004000000610063
310
00000000000000000000000000000000000000000000000000000000000000000000000000000000000000000000000000000000000000000000000000000000000000000000000000000000000000000000000000000000000000000000000000000000000000000000000000000000000000000000000000000000000000
310
00000000000000000000000000000000000000000000000000000000000000000000000000000000000000000000000000000000000000000000000000000000000000000000000000000000000000000000000000000000000000000000000000000000000000000000000000000000000000000000000000000000000000
310
00000000000000000000000000000000000000000000000000000000000000000000000000000000000000000000000000000000000000000000000000000000000000000000000000000000000000000000000000000000000000000000000000000000000000000000000000000000000000000000000000000000000000
310
000000000000000000000000000000000000000000000000000000000000000000000000000000000000000000000000000000005600420041005F00500072006F006A006500630074005F00560065007200730069006F006E00000000000000000000000000000000000000000000000000000028000200FFFFFFFFFFFFFF
310
FFFFFFFFFF0000000000000000000000000000000000000000000000000000000000000000000000003900000010000000000000000000000000000000000000000000000000000000000000000000000000000000000000000000000000000000000000000000000000000000000000000000000000000000FFFFFFFFFFFF
310
FFFFFFFFFFFF0000000000000000000000000000000000000000000000000000000000000000000000000000000000000000000000000000000000000000000000000000000000000000000000000000000000000000000000000000000000000000000000000000000000000000000000000000000000000000FFFFFFFFFF
310
FFFFFFFFFFFFFF0000000000000000000000000000000000000000000000000000000000000000000000000000000000000000000000000000000000000000000000000000000000000000000000000000000000000000000000000000000000000000000000000000000000000000000000000000000000000000FFFFFFFF
310
FFFFFFFFFFFFFFFF000000000000000000000000000000000000000000000000000000000000000000000000000000000000000000000000
  0
VISUALSTYLE
  5
648
102
{ACAD_REACTORS
330
642
102
}
330
642
100
AcDbVisualStyle
  2
2dWireframe
 70
     4
 71
     0
 72
     2
 73
     0
 90
        0
 40
-0.6
 41
-30.0
 62
     5
 63
     7
 74
     1
 91
        4
 64
     7
 65
   257
 75
     1
175
     1
 42
1.0
 92
        0
 66
   257
 43
1.0
 76
     1
 77
     6
 78
     2
 67
     7
 79
     5
170
     0
171
     0
290
     0
174
     0
 93
        1
 44
0.0
173
     0
291
     0
 45
0.0
1001
ACAD
1000
AcRTDxfName
1000
VISUALSTYLE
1000
AcRTDxfName
1000
VISUALSTYLE
1000
AcRTDxfName
1000
VISUALSTYLE
1000
AcRTDxfName
1000
VISUALSTYLE
1000
AcRTDxfName
1000
VISUALSTYLE
1000
AcRTDxfName
1000
VISUALSTYLE
1000
AcRTDxfName
1000
VISUALSTYLE
1000
AcRTDxfName
1000
VISUALSTYLE
1000
AcRTDxfName
1000
VISUALSTYLE
1000
AcRTDxfName
1000
VISUALSTYLE
1000
AcRTDxfName
1000
VISUALSTYLE
1000
AcRTDxfName
1000
VISUALSTYLE
1000
AcRTDxfName
1000
VISUALSTYLE
1000
AcRTDxfName
1000
VISUALSTYLE
1000
AcRTDxfName
1000
VISUALSTYLE
1000
AcRTDxfName
1000
VISUALSTYLE
1000
AcRTDxfName
1000
VISUALSTYLE
1000
AcRTDxfName
1000
VISUALSTYLE
1000
AcRTDxfName
1000
VISUALSTYLE
1000
AcRTDxfName
1000
VISUALSTYLE
1000
AcRTDxfName
1000
VISUALSTYLE
1000
AcRTDxfName
1000
VISUALSTYLE
1000
AcRTDxfName
1000
VISUALSTYLE
1000
AcRTDxfName
1000
VISUALSTYLE
1000
AcRTDxfName
1000
VISUALSTYLE
1000
AcRTDxfName
1000
VISUALSTYLE
1000
AcRTDxfName
1000
VISUALSTYLE
1000
AcRTDxfName
1000
VISUALSTYLE
1000
AcRTDxfName
1000
VISUALSTYLE
1000
AcRTDxfName
1000
VISUALSTYLE
1000
AcRTDxfName
1000
VISUALSTYLE
  0
VISUALSTYLE
  5
64A
102
{ACAD_REACTORS
330
642
102
}
330
642
100
AcDbVisualStyle
  2
3D Hidden
 70
     6
 71
     1
 72
     2
 73
     2
 90
        0
 40
-0.6
 41
-30.0
 62
     5
 63
     7
 74
     2
 91
        2
 64
     7
 65
   257
 75
     2
175
     1
 42
40.0
 92
        0
 66
   257
 43
1.0
 76
     1
 77
     6
 78
     2
 67
     7
 79
     3
170
     0
171
     0
290
     0
174
     0
 93
        1
 44
0.0
173
     0
291
     0
 45
0.0
1001
ACAD
1000
AcRTDxfName
1000
VISUALSTYLE
1000
AcRTDxfName
1000
VISUALSTYLE
1000
AcRTDxfName
1000
VISUALSTYLE
1000
AcRTDxfName
1000
VISUALSTYLE
1000
AcRTDxfName
1000
VISUALSTYLE
1000
AcRTDxfName
1000
VISUALSTYLE
1000
AcRTDxfName
1000
VISUALSTYLE
1000
AcRTDxfName
1000
VISUALSTYLE
1000
AcRTDxfName
1000
VISUALSTYLE
1000
AcRTDxfName
1000
VISUALSTYLE
1000
AcRTDxfName
1000
VISUALSTYLE
1000
AcRTDxfName
1000
VISUALSTYLE
1000
AcRTDxfName
1000
VISUALSTYLE
1000
AcRTDxfName
1000
VISUALSTYLE
1000
AcRTDxfName
1000
VISUALSTYLE
1000
AcRTDxfName
1000
VISUALSTYLE
1000
AcRTDxfName
1000
VISUALSTYLE
1000
AcRTDxfName
1000
VISUALSTYLE
1000
AcRTDxfName
1000
VISUALSTYLE
1000
AcRTDxfName
1000
VISUALSTYLE
1000
AcRTDxfName
1000
VISUALSTYLE
1000
AcRTDxfName
1000
VISUALSTYLE
1000
AcRTDxfName
1000
VISUALSTYLE
1000
AcRTDxfName
1000
VISUALSTYLE
1000
AcRTDxfName
1000
VISUALSTYLE
1000
AcRTDxfName
1000
VISUALSTYLE
1000
AcRTDxfName
1000
VISUALSTYLE
1000
AcRTDxfName
1000
VISUALSTYLE
1000
AcRTDxfName
1000
VISUALSTYLE
1000
AcRTDxfName
1000
VISUALSTYLE
1000
AcRTDxfName
1000
VISUALSTYLE
  0
VISUALSTYLE
  5
649
102
{ACAD_REACTORS
330
642
102
}
330
642
100
AcDbVisualStyle
  2
3dWireframe
 70
     5
 71
     0
 72
     2
 73
     0
 90
        0
 40
-0.6
 41
-30.0
 62
     5
 63
     7
 74
     1
 91
        4
 64
     7
 65
   257
 75
     1
175
     1
 42
1.0
 92
        0
 66
   257
 43
1.0
 76
     1
 77
     6
 78
     2
 67
     7
 79
     5
170
     0
171
     0
290
     0
174
     0
 93
        1
 44
0.0
173
     0
291
     0
 45
0.0
1001
ACAD
1000
AcRTDxfName
1000
VISUALSTYLE
1000
AcRTDxfName
1000
VISUALSTYLE
1000
AcRTDxfName
1000
VISUALSTYLE
1000
AcRTDxfName
1000
VISUALSTYLE
1000
AcRTDxfName
1000
VISUALSTYLE
1000
AcRTDxfName
1000
VISUALSTYLE
1000
AcRTDxfName
1000
VISUALSTYLE
1000
AcRTDxfName
1000
VISUALSTYLE
1000
AcRTDxfName
1000
VISUALSTYLE
1000
AcRTDxfName
1000
VISUALSTYLE
1000
AcRTDxfName
1000
VISUALSTYLE
1000
AcRTDxfName
1000
VISUALSTYLE
1000
AcRTDxfName
1000
VISUALSTYLE
1000
AcRTDxfName
1000
VISUALSTYLE
1000
AcRTDxfName
1000
VISUALSTYLE
1000
AcRTDxfName
1000
VISUALSTYLE
1000
AcRTDxfName
1000
VISUALSTYLE
1000
AcRTDxfName
1000
VISUALSTYLE
1000
AcRTDxfName
1000
VISUALSTYLE
1000
AcRTDxfName
1000
VISUALSTYLE
1000
AcRTDxfName
1000
VISUALSTYLE
1000
AcRTDxfName
1000
VISUALSTYLE
1000
AcRTDxfName
1000
VISUALSTYLE
1000
AcRTDxfName
1000
VISUALSTYLE
1000
AcRTDxfName
1000
VISUALSTYLE
1000
AcRTDxfName
1000
VISUALSTYLE
1000
AcRTDxfName
1000
VISUALSTYLE
1000
AcRTDxfName
1000
VISUALSTYLE
1000
AcRTDxfName
1000
VISUALSTYLE
1000
AcRTDxfName
1000
VISUALSTYLE
1000
AcRTDxfName
1000
VISUALSTYLE
  0
VISUALSTYLE
  5
647
102
{ACAD_REACTORS
330
642
102
}
330
642
100
AcDbVisualStyle
  2
Basic
 70
     7
 71
     1
 72
     0
 73
     1
 90
        0
 40
-0.6
 41
-30.0
 62
     5
 63
     7
 74
     0
 91
        4
 64
     7
 65
   257
 75
     1
175
     1
 42
1.0
 92
        8
 66
     7
 43
1.0
 76
     1
 77
     6
 78
     2
 67
     7
 79
     5
170
     0
171
     0
290
     0
174
     0
 93
        1
 44
0.0
173
     0
291
     1
 45
0.0
1001
ACAD
1000
AcRTDxfName
1000
VISUALSTYLE
1000
AcRTDxfName
1000
VISUALSTYLE
1000
AcRTDxfName
1000
VISUALSTYLE
1000
AcRTDxfName
1000
VISUALSTYLE
1000
AcRTDxfName
1000
VISUALSTYLE
1000
AcRTDxfName
1000
VISUALSTYLE
1000
AcRTDxfName
1000
VISUALSTYLE
1000
AcRTDxfName
1000
VISUALSTYLE
1000
AcRTDxfName
1000
VISUALSTYLE
1000
AcRTDxfName
1000
VISUALSTYLE
1000
AcRTDxfName
1000
VISUALSTYLE
1000
AcRTDxfName
1000
VISUALSTYLE
1000
AcRTDxfName
1000
VISUALSTYLE
1000
AcRTDxfName
1000
VISUALSTYLE
1000
AcRTDxfName
1000
VISUALSTYLE
1000
AcRTDxfName
1000
VISUALSTYLE
1000
AcRTDxfName
1000
VISUALSTYLE
1000
AcRTDxfName
1000
VISUALSTYLE
1000
AcRTDxfName
1000
VISUALSTYLE
1000
AcRTDxfName
1000
VISUALSTYLE
1000
AcRTDxfName
1000
VISUALSTYLE
1000
AcRTDxfName
1000
VISUALSTYLE
1000
AcRTDxfName
1000
VISUALSTYLE
1000
AcRTDxfName
1000
VISUALSTYLE
1000
AcRTDxfName
1000
VISUALSTYLE
1000
AcRTDxfName
1000
VISUALSTYLE
1000
AcRTDxfName
1000
VISUALSTYLE
1000
AcRTDxfName
1000
VISUALSTYLE
1000
AcRTDxfName
1000
VISUALSTYLE
1000
AcRTDxfName
1000
VISUALSTYLE
1000
AcRTDxfName
1000
VISUALSTYLE
  0
VISUALSTYLE
  5
64E
102
{ACAD_REACTORS
330
642
102
}
330
642
100
AcDbVisualStyle
  2
Brighten
 70
    12
 71
     2
 72
     2
 73
     0
 90
        0
 40
-0.6
 41
-30.0
 62
     5
 63
     7
 74
     1
 91
        4
 64
     7
 65
   257
 75
     1
175
     1
 42
1.0
 92
        8
 66
     7
 43
1.0
 76
     1
 77
     6
 78
     2
 67
     7
 79
     5
170
     0
171
     0
290
     0
174
     0
 93
        1
 44
50.0
173
     0
291
     1
 45
0.0
1001
ACAD
1000
AcRTDxfName
1000
VISUALSTYLE
1000
AcRTDxfName
1000
VISUALSTYLE
1000
AcRTDxfName
1000
VISUALSTYLE
1000
AcRTDxfName
1000
VISUALSTYLE
1000
AcRTDxfName
1000
VISUALSTYLE
1000
AcRTDxfName
1000
VISUALSTYLE
1000
AcRTDxfName
1000
VISUALSTYLE
1000
AcRTDxfName
1000
VISUALSTYLE
1000
AcRTDxfName
1000
VISUALSTYLE
1000
AcRTDxfName
1000
VISUALSTYLE
1000
AcRTDxfName
1000
VISUALSTYLE
1000
AcRTDxfName
1000
VISUALSTYLE
1000
AcRTDxfName
1000
VISUALSTYLE
1000
AcRTDxfName
1000
VISUALSTYLE
1000
AcRTDxfName
1000
VISUALSTYLE
1000
AcRTDxfName
1000
VISUALSTYLE
1000
AcRTDxfName
1000
VISUALSTYLE
1000
AcRTDxfName
1000
VISUALSTYLE
1000
AcRTDxfName
1000
VISUALSTYLE
1000
AcRTDxfName
1000
VISUALSTYLE
1000
AcRTDxfName
1000
VISUALSTYLE
1000
AcRTDxfName
1000
VISUALSTYLE
1000
AcRTDxfName
1000
VISUALSTYLE
1000
AcRTDxfName
1000
VISUALSTYLE
1000
AcRTDxfName
1000
VISUALSTYLE
1000
AcRTDxfName
1000
VISUALSTYLE
1000
AcRTDxfName
1000
VISUALSTYLE
1000
AcRTDxfName
1000
VISUALSTYLE
1000
AcRTDxfName
1000
VISUALSTYLE
1000
AcRTDxfName
1000
VISUALSTYLE
1000
AcRTDxfName
1000
VISUALSTYLE
  0
VISUALSTYLE
  5
652
102
{ACAD_REACTORS
330
642
102
}
330
642
100
AcDbVisualStyle
  2
ColorChange
 70
    16
 71
     2
 72
     2
 73
     3
 90
        0
 40
-0.6
 41
-30.0
 62
     5
 63
     8
 74
     1
 91
        4
 64
     7
 65
   257
 75
     1
175
     1
 42
1.0
 92
        8
 66
     8
 43
1.0
 76
     1
 77
     6
 78
     2
 67
     7
 79
     5
170
     0
171
     0
290
     0
174
     0
 93
        1
 44
0.0
173
     0
291
     1
 45
0.0
1001
ACAD
1000
AcRTDxfName
1000
VISUALSTYLE
1000
AcRTDxfName
1000
VISUALSTYLE
1000
AcRTDxfName
1000
VISUALSTYLE
1000
AcRTDxfName
1000
VISUALSTYLE
1000
AcRTDxfName
1000
VISUALSTYLE
1000
AcRTDxfName
1000
VISUALSTYLE
1000
AcRTDxfName
1000
VISUALSTYLE
1000
AcRTDxfName
1000
VISUALSTYLE
1000
AcRTDxfName
1000
VISUALSTYLE
1000
AcRTDxfName
1000
VISUALSTYLE
1000
AcRTDxfName
1000
VISUALSTYLE
1000
AcRTDxfName
1000
VISUALSTYLE
1000
AcRTDxfName
1000
VISUALSTYLE
1000
AcRTDxfName
1000
VISUALSTYLE
1000
AcRTDxfName
1000
VISUALSTYLE
1000
AcRTDxfName
1000
VISUALSTYLE
1000
AcRTDxfName
1000
VISUALSTYLE
1000
AcRTDxfName
1000
VISUALSTYLE
1000
AcRTDxfName
1000
VISUALSTYLE
1000
AcRTDxfName
1000
VISUALSTYLE
1000
AcRTDxfName
1000
VISUALSTYLE
1000
AcRTDxfName
1000
VISUALSTYLE
1000
AcRTDxfName
1000
VISUALSTYLE
1000
AcRTDxfName
1000
VISUALSTYLE
1000
AcRTDxfName
1000
VISUALSTYLE
1000
AcRTDxfName
1000
VISUALSTYLE
1000
AcRTDxfName
1000
VISUALSTYLE
1000
AcRTDxfName
1000
VISUALSTYLE
1000
AcRTDxfName
1000
VISUALSTYLE
1000
AcRTDxfName
1000
VISUALSTYLE
1000
AcRTDxfName
1000
VISUALSTYLE
  0
VISUALSTYLE
  5
64B
102
{ACAD_REACTORS
330
642
102
}
330
642
100
AcDbVisualStyle
  2
Conceptual
 70
     9
 71
     3
 72
     2
 73
     0
 90
        0
 40
-0.6
 41
-30.0
 62
     5
 63
     7
 74
     2
 91
        2
 64
     7
 65
   257
 75
     1
175
     1
 42
40.0
 92
        8
 66
     7
 43
1.0
 76
     1
 77
     6
 78
     2
 67
     7
 79
     3
170
     0
171
     0
290
     0
174
     0
 93
        1
 44
0.0
173
     0
291
     0
 45
0.0
1001
ACAD
1000
AcRTDxfName
1000
VISUALSTYLE
1000
AcRTDxfName
1000
VISUALSTYLE
1000
AcRTDxfName
1000
VISUALSTYLE
1000
AcRTDxfName
1000
VISUALSTYLE
1000
AcRTDxfName
1000
VISUALSTYLE
1000
AcRTDxfName
1000
VISUALSTYLE
1000
AcRTDxfName
1000
VISUALSTYLE
1000
AcRTDxfName
1000
VISUALSTYLE
1000
AcRTDxfName
1000
VISUALSTYLE
1000
AcRTDxfName
1000
VISUALSTYLE
1000
AcRTDxfName
1000
VISUALSTYLE
1000
AcRTDxfName
1000
VISUALSTYLE
1000
AcRTDxfName
1000
VISUALSTYLE
1000
AcRTDxfName
1000
VISUALSTYLE
1000
AcRTDxfName
1000
VISUALSTYLE
1000
AcRTDxfName
1000
VISUALSTYLE
1000
AcRTDxfName
1000
VISUALSTYLE
1000
AcRTDxfName
1000
VISUALSTYLE
1000
AcRTDxfName
1000
VISUALSTYLE
1000
AcRTDxfName
1000
VISUALSTYLE
1000
AcRTDxfName
1000
VISUALSTYLE
1000
AcRTDxfName
1000
VISUALSTYLE
1000
AcRTDxfName
1000
VISUALSTYLE
1000
AcRTDxfName
1000
VISUALSTYLE
1000
AcRTDxfName
1000
VISUALSTYLE
1000
AcRTDxfName
1000
VISUALSTYLE
1000
AcRTDxfName
1000
VISUALSTYLE
1000
AcRTDxfName
1000
VISUALSTYLE
1000
AcRTDxfName
1000
VISUALSTYLE
1000
AcRTDxfName
1000
VISUALSTYLE
1000
AcRTDxfName
1000
VISUALSTYLE
  0
VISUALSTYLE
  5
64D
102
{ACAD_REACTORS
330
642
102
}
330
642
100
AcDbVisualStyle
  2
Dim
 70
    11
 71
     2
 72
     2
 73
     0
 90
        0
 40
-0.6
 41
-30.0
 62
     5
 63
     7
 74
     1
 91
        4
 64
     7
 65
   257
 75
     1
175
     1
 42
1.0
 92
        8
 66
     7
 43
1.0
 76
     1
 77
     6
 78
     2
 67
     7
 79
     5
170
     0
171
     0
290
     0
174
     0
 93
        1
 44
-50.0
173
     0
291
     1
 45
0.0
1001
ACAD
1000
AcRTDxfName
1000
VISUALSTYLE
1000
AcRTDxfName
1000
VISUALSTYLE
1000
AcRTDxfName
1000
VISUALSTYLE
1000
AcRTDxfName
1000
VISUALSTYLE
1000
AcRTDxfName
1000
VISUALSTYLE
1000
AcRTDxfName
1000
VISUALSTYLE
1000
AcRTDxfName
1000
VISUALSTYLE
1000
AcRTDxfName
1000
VISUALSTYLE
1000
AcRTDxfName
1000
VISUALSTYLE
1000
AcRTDxfName
1000
VISUALSTYLE
1000
AcRTDxfName
1000
VISUALSTYLE
1000
AcRTDxfName
1000
VISUALSTYLE
1000
AcRTDxfName
1000
VISUALSTYLE
1000
AcRTDxfName
1000
VISUALSTYLE
1000
AcRTDxfName
1000
VISUALSTYLE
1000
AcRTDxfName
1000
VISUALSTYLE
1000
AcRTDxfName
1000
VISUALSTYLE
1000
AcRTDxfName
1000
VISUALSTYLE
1000
AcRTDxfName
1000
VISUALSTYLE
1000
AcRTDxfName
1000
VISUALSTYLE
1000
AcRTDxfName
1000
VISUALSTYLE
1000
AcRTDxfName
1000
VISUALSTYLE
1000
AcRTDxfName
1000
VISUALSTYLE
1000
AcRTDxfName
1000
VISUALSTYLE
1000
AcRTDxfName
1000
VISUALSTYLE
1000
AcRTDxfName
1000
VISUALSTYLE
1000
AcRTDxfName
1000
VISUALSTYLE
1000
AcRTDxfName
1000
VISUALSTYLE
1000
AcRTDxfName
1000
VISUALSTYLE
1000
AcRTDxfName
1000
VISUALSTYLE
1000
AcRTDxfName
1000
VISUALSTYLE
  0
VISUALSTYLE
  5
651
102
{ACAD_REACTORS
330
642
102
}
330
642
100
AcDbVisualStyle
  2
Facepattern
 70
    15
 71
     2
 72
     2
 73
     0
 90
        0
 40
-0.6
 41
-30.0
 62
     5
 63
     7
 74
     1
 91
        4
 64
     7
 65
   257
 75
     1
175
     1
 42
1.0
 92
        8
 66
     7
 43
1.0
 76
     1
 77
     6
 78
     2
 67
     7
 79
     5
170
     0
171
     0
290
     0
174
     0
 93
        1
 44
0.0
173
     0
291
     1
 45
0.0
1001
ACAD
1000
AcRTDxfName
1000
VISUALSTYLE
1000
AcRTDxfName
1000
VISUALSTYLE
1000
AcRTDxfName
1000
VISUALSTYLE
1000
AcRTDxfName
1000
VISUALSTYLE
1000
AcRTDxfName
1000
VISUALSTYLE
1000
AcRTDxfName
1000
VISUALSTYLE
1000
AcRTDxfName
1000
VISUALSTYLE
1000
AcRTDxfName
1000
VISUALSTYLE
1000
AcRTDxfName
1000
VISUALSTYLE
1000
AcRTDxfName
1000
VISUALSTYLE
1000
AcRTDxfName
1000
VISUALSTYLE
1000
AcRTDxfName
1000
VISUALSTYLE
1000
AcRTDxfName
1000
VISUALSTYLE
1000
AcRTDxfName
1000
VISUALSTYLE
1000
AcRTDxfName
1000
VISUALSTYLE
1000
AcRTDxfName
1000
VISUALSTYLE
1000
AcRTDxfName
1000
VISUALSTYLE
1000
AcRTDxfName
1000
VISUALSTYLE
1000
AcRTDxfName
1000
VISUALSTYLE
1000
AcRTDxfName
1000
VISUALSTYLE
1000
AcRTDxfName
1000
VISUALSTYLE
1000
AcRTDxfName
1000
VISUALSTYLE
1000
AcRTDxfName
1000
VISUALSTYLE
1000
AcRTDxfName
1000
VISUALSTYLE
1000
AcRTDxfName
1000
VISUALSTYLE
1000
AcRTDxfName
1000
VISUALSTYLE
1000
AcRTDxfName
1000
VISUALSTYLE
1000
AcRTDxfName
1000
VISUALSTYLE
1000
AcRTDxfName
1000
VISUALSTYLE
1000
AcRTDxfName
1000
VISUALSTYLE
1000
AcRTDxfName
1000
VISUALSTYLE
  0
VISUALSTYLE
  5
643
102
{ACAD_REACTORS
330
642
102
}
330
642
100
AcDbVisualStyle
  2
Flat
 70
     0
 71
     2
 72
     1
 73
     1
 90
        2
 40
-0.6
 41
30.0
 62
     5
 63
     7
 74
     0
 91
        4
 64
     7
 65
   257
 75
     1
175
     1
 42
1.0
 92
        8
 66
     7
 43
1.0
 76
     1
 77
     6
 78
     2
 67
     7
 79
     5
170
     0
171
     0
290
     0
174
     0
 93
       13
 44
0.0
173
     0
291
     1
 45
0.0
1001
ACAD
1000
AcRTDxfName
1000
VISUALSTYLE
1000
AcRTDxfName
1000
VISUALSTYLE
1000
AcRTDxfName
1000
VISUALSTYLE
1000
AcRTDxfName
1000
VISUALSTYLE
1000
AcRTDxfName
1000
VISUALSTYLE
1000
AcRTDxfName
1000
VISUALSTYLE
1000
AcRTDxfName
1000
VISUALSTYLE
1000
AcRTDxfName
1000
VISUALSTYLE
1000
AcRTDxfName
1000
VISUALSTYLE
1000
AcRTDxfName
1000
VISUALSTYLE
1000
AcRTDxfName
1000
VISUALSTYLE
1000
AcRTDxfName
1000
VISUALSTYLE
1000
AcRTDxfName
1000
VISUALSTYLE
1000
AcRTDxfName
1000
VISUALSTYLE
1000
AcRTDxfName
1000
VISUALSTYLE
1000
AcRTDxfName
1000
VISUALSTYLE
1000
AcRTDxfName
1000
VISUALSTYLE
1000
AcRTDxfName
1000
VISUALSTYLE
1000
AcRTDxfName
1000
VISUALSTYLE
1000
AcRTDxfName
1000
VISUALSTYLE
1000
AcRTDxfName
1000
VISUALSTYLE
1000
AcRTDxfName
1000
VISUALSTYLE
1000
AcRTDxfName
1000
VISUALSTYLE
1000
AcRTDxfName
1000
VISUALSTYLE
1000
AcRTDxfName
1000
VISUALSTYLE
1000
AcRTDxfName
1000
VISUALSTYLE
1000
AcRTDxfName
1000
VISUALSTYLE
1000
AcRTDxfName
1000
VISUALSTYLE
1000
AcRTDxfName
1000
VISUALSTYLE
1000
AcRTDxfName
1000
VISUALSTYLE
1000
AcRTDxfName
1000
VISUALSTYLE
  0
VISUALSTYLE
  5
644
102
{ACAD_REACTORS
330
642
102
}
330
642
100
AcDbVisualStyle
  2
FlatWithEdges
 70
     1
 71
     2
 72
     1
 73
     1
 90
        2
 40
-0.6
 41
30.0
 62
     5
 63
     7
 74
     1
 91
        4
 64
     7
 65
   257
 75
     1
175
     1
 42
1.0
 92
        0
 66
   257
 43
1.0
 76
     1
 77
     6
 78
     2
 67
     7
 79
     5
170
     0
171
     0
290
     0
174
     0
 93
       13
 44
0.0
173
     0
291
     1
 45
0.0
1001
ACAD
1000
AcRTDxfName
1000
VISUALSTYLE
1000
AcRTDxfName
1000
VISUALSTYLE
1000
AcRTDxfName
1000
VISUALSTYLE
1000
AcRTDxfName
1000
VISUALSTYLE
1000
AcRTDxfName
1000
VISUALSTYLE
1000
AcRTDxfName
1000
VISUALSTYLE
1000
AcRTDxfName
1000
VISUALSTYLE
1000
AcRTDxfName
1000
VISUALSTYLE
1000
AcRTDxfName
1000
VISUALSTYLE
1000
AcRTDxfName
1000
VISUALSTYLE
1000
AcRTDxfName
1000
VISUALSTYLE
1000
AcRTDxfName
1000
VISUALSTYLE
1000
AcRTDxfName
1000
VISUALSTYLE
1000
AcRTDxfName
1000
VISUALSTYLE
1000
AcRTDxfName
1000
VISUALSTYLE
1000
AcRTDxfName
1000
VISUALSTYLE
1000
AcRTDxfName
1000
VISUALSTYLE
1000
AcRTDxfName
1000
VISUALSTYLE
1000
AcRTDxfName
1000
VISUALSTYLE
1000
AcRTDxfName
1000
VISUALSTYLE
1000
AcRTDxfName
1000
VISUALSTYLE
1000
AcRTDxfName
1000
VISUALSTYLE
1000
AcRTDxfName
1000
VISUALSTYLE
1000
AcRTDxfName
1000
VISUALSTYLE
1000
AcRTDxfName
1000
VISUALSTYLE
1000
AcRTDxfName
1000
VISUALSTYLE
1000
AcRTDxfName
1000
VISUALSTYLE
1000
AcRTDxfName
1000
VISUALSTYLE
1000
AcRTDxfName
1000
VISUALSTYLE
1000
AcRTDxfName
1000
VISUALSTYLE
1000
AcRTDxfName
1000
VISUALSTYLE
  0
VISUALSTYLE
  5
645
102
{ACAD_REACTORS
330
642
102
}
330
642
100
AcDbVisualStyle
  2
Gouraud
 70
     2
 71
     2
 72
     2
 73
     1
 90
        2
 40
-0.6
 41
30.0
 62
     5
 63
     7
 74
     0
 91
        4
 64
     7
 65
   257
 75
     1
175
     1
 42
1.0
 92
        0
 66
     7
 43
1.0
 76
     1
 77
     6
 78
     2
 67
     7
 79
     5
170
     0
171
     0
290
     0
174
     0
 93
       13
 44
0.0
173
     0
291
     1
 45
0.0
1001
ACAD
1000
AcRTDxfName
1000
VISUALSTYLE
1000
AcRTDxfName
1000
VISUALSTYLE
1000
AcRTDxfName
1000
VISUALSTYLE
1000
AcRTDxfName
1000
VISUALSTYLE
1000
AcRTDxfName
1000
VISUALSTYLE
1000
AcRTDxfName
1000
VISUALSTYLE
1000
AcRTDxfName
1000
VISUALSTYLE
1000
AcRTDxfName
1000
VISUALSTYLE
1000
AcRTDxfName
1000
VISUALSTYLE
1000
AcRTDxfName
1000
VISUALSTYLE
1000
AcRTDxfName
1000
VISUALSTYLE
1000
AcRTDxfName
1000
VISUALSTYLE
1000
AcRTDxfName
1000
VISUALSTYLE
1000
AcRTDxfName
1000
VISUALSTYLE
1000
AcRTDxfName
1000
VISUALSTYLE
1000
AcRTDxfName
1000
VISUALSTYLE
1000
AcRTDxfName
1000
VISUALSTYLE
1000
AcRTDxfName
1000
VISUALSTYLE
1000
AcRTDxfName
1000
VISUALSTYLE
1000
AcRTDxfName
1000
VISUALSTYLE
1000
AcRTDxfName
1000
VISUALSTYLE
1000
AcRTDxfName
1000
VISUALSTYLE
1000
AcRTDxfName
1000
VISUALSTYLE
1000
AcRTDxfName
1000
VISUALSTYLE
1000
AcRTDxfName
1000
VISUALSTYLE
1000
AcRTDxfName
1000
VISUALSTYLE
1000
AcRTDxfName
1000
VISUALSTYLE
1000
AcRTDxfName
1000
VISUALSTYLE
1000
AcRTDxfName
1000
VISUALSTYLE
1000
AcRTDxfName
1000
VISUALSTYLE
1000
AcRTDxfName
1000
VISUALSTYLE
  0
VISUALSTYLE
  5
646
102
{ACAD_REACTORS
330
642
102
}
330
642
100
AcDbVisualStyle
  2
GouraudWithEdges
 70
     3
 71
     2
 72
     2
 73
     1
 90
        2
 40
-0.6
 41
30.0
 62
     5
 63
     7
 74
     1
 91
        4
 64
     7
 65
   257
 75
     1
175
     1
 42
1.0
 92
        0
 66
   257
 43
1.0
 76
     1
 77
     6
 78
     2
 67
     7
 79
     5
170
     0
171
     0
290
     0
174
     0
 93
       13
 44
0.0
173
     0
291
     1
 45
0.0
1001
ACAD
1000
AcRTDxfName
1000
VISUALSTYLE
1000
AcRTDxfName
1000
VISUALSTYLE
1000
AcRTDxfName
1000
VISUALSTYLE
1000
AcRTDxfName
1000
VISUALSTYLE
1000
AcRTDxfName
1000
VISUALSTYLE
1000
AcRTDxfName
1000
VISUALSTYLE
1000
AcRTDxfName
1000
VISUALSTYLE
1000
AcRTDxfName
1000
VISUALSTYLE
1000
AcRTDxfName
1000
VISUALSTYLE
1000
AcRTDxfName
1000
VISUALSTYLE
1000
AcRTDxfName
1000
VISUALSTYLE
1000
AcRTDxfName
1000
VISUALSTYLE
1000
AcRTDxfName
1000
VISUALSTYLE
1000
AcRTDxfName
1000
VISUALSTYLE
1000
AcRTDxfName
1000
VISUALSTYLE
1000
AcRTDxfName
1000
VISUALSTYLE
1000
AcRTDxfName
1000
VISUALSTYLE
1000
AcRTDxfName
1000
VISUALSTYLE
1000
AcRTDxfName
1000
VISUALSTYLE
1000
AcRTDxfName
1000
VISUALSTYLE
1000
AcRTDxfName
1000
VISUALSTYLE
1000
AcRTDxfName
1000
VISUALSTYLE
1000
AcRTDxfName
1000
VISUALSTYLE
1000
AcRTDxfName
1000
VISUALSTYLE
1000
AcRTDxfName
1000
VISUALSTYLE
1000
AcRTDxfName
1000
VISUALSTYLE
1000
AcRTDxfName
1000
VISUALSTYLE
1000
AcRTDxfName
1000
VISUALSTYLE
1000
AcRTDxfName
1000
VISUALSTYLE
1000
AcRTDxfName
1000
VISUALSTYLE
1000
AcRTDxfName
1000
VISUALSTYLE
  0
VISUALSTYLE
  5
650
102
{ACAD_REACTORS
330
642
102
}
330
642
100
AcDbVisualStyle
  2
Linepattern
 70
    14
 71
     2
 72
     2
 73
     0
 90
        0
 40
-0.6
 41
-30.0
 62
     5
 63
     7
 74
     1
 91
        4
 64
     7
 65
   257
 75
     7
175
     7
 42
1.0
 92
        8
 66
     7
 43
1.0
 76
     1
 77
     6
 78
     2
 67
     7
 79
     5
170
     0
171
     0
290
     0
174
     0
 93
        1
 44
0.0
173
     0
291
     1
 45
0.0
1001
ACAD
1000
AcRTDxfName
1000
VISUALSTYLE
1000
AcRTDxfName
1000
VISUALSTYLE
1000
AcRTDxfName
1000
VISUALSTYLE
1000
AcRTDxfName
1000
VISUALSTYLE
1000
AcRTDxfName
1000
VISUALSTYLE
1000
AcRTDxfName
1000
VISUALSTYLE
1000
AcRTDxfName
1000
VISUALSTYLE
1000
AcRTDxfName
1000
VISUALSTYLE
1000
AcRTDxfName
1000
VISUALSTYLE
1000
AcRTDxfName
1000
VISUALSTYLE
1000
AcRTDxfName
1000
VISUALSTYLE
1000
AcRTDxfName
1000
VISUALSTYLE
1000
AcRTDxfName
1000
VISUALSTYLE
1000
AcRTDxfName
1000
VISUALSTYLE
1000
AcRTDxfName
1000
VISUALSTYLE
1000
AcRTDxfName
1000
VISUALSTYLE
1000
AcRTDxfName
1000
VISUALSTYLE
1000
AcRTDxfName
1000
VISUALSTYLE
1000
AcRTDxfName
1000
VISUALSTYLE
1000
AcRTDxfName
1000
VISUALSTYLE
1000
AcRTDxfName
1000
VISUALSTYLE
1000
AcRTDxfName
1000
VISUALSTYLE
1000
AcRTDxfName
1000
VISUALSTYLE
1000
AcRTDxfName
1000
VISUALSTYLE
1000
AcRTDxfName
1000
VISUALSTYLE
1000
AcRTDxfName
1000
VISUALSTYLE
1000
AcRTDxfName
1000
VISUALSTYLE
1000
AcRTDxfName
1000
VISUALSTYLE
1000
AcRTDxfName
1000
VISUALSTYLE
1000
AcRTDxfName
1000
VISUALSTYLE
1000
AcRTDxfName
1000
VISUALSTYLE
  0
VISUALSTYLE
  5
64C
102
{ACAD_REACTORS
330
642
102
}
330
642
100
AcDbVisualStyle
  2
Realistic
 70
     8
 71
     2
 72
     2
 73
     0
 90
        0
 40
-0.6
 41
-30.0
 62
     5
 63
     7
 74
     1
 91
        0
 64
     7
 65
   257
 75
     1
175
     1
 42
1.0
 92
        8
 66
     8
 43
1.0
 76
     1
 77
     6
 78
     2
 67
     7
 79
     5
170
     0
171
     0
290
     0
174
     0
 93
       13
 44
0.0
173
     0
291
     0
 45
0.0
1001
ACAD
1000
AcRTDxfName
1000
VISUALSTYLE
1000
AcRTDxfName
1000
VISUALSTYLE
1000
AcRTDxfName
1000
VISUALSTYLE
1000
AcRTDxfName
1000
VISUALSTYLE
1000
AcRTDxfName
1000
VISUALSTYLE
1000
AcRTDxfName
1000
VISUALSTYLE
1000
AcRTDxfName
1000
VISUALSTYLE
1000
AcRTDxfName
1000
VISUALSTYLE
1000
AcRTDxfName
1000
VISUALSTYLE
1000
AcRTDxfName
1000
VISUALSTYLE
1000
AcRTDxfName
1000
VISUALSTYLE
1000
AcRTDxfName
1000
VISUALSTYLE
1000
AcRTDxfName
1000
VISUALSTYLE
1000
AcRTDxfName
1000
VISUALSTYLE
1000
AcRTDxfName
1000
VISUALSTYLE
1000
AcRTDxfName
1000
VISUALSTYLE
1000
AcRTDxfName
1000
VISUALSTYLE
1000
AcRTDxfName
1000
VISUALSTYLE
1000
AcRTDxfName
1000
VISUALSTYLE
1000
AcRTDxfName
1000
VISUALSTYLE
1000
AcRTDxfName
1000
VISUALSTYLE
1000
AcRTDxfName
1000
VISUALSTYLE
1000
AcRTDxfName
1000
VISUALSTYLE
1000
AcRTDxfName
1000
VISUALSTYLE
1000
AcRTDxfName
1000
VISUALSTYLE
1000
AcRTDxfName
1000
VISUALSTYLE
1000
AcRTDxfName
1000
VISUALSTYLE
1000
AcRTDxfName
1000
VISUALSTYLE
1000
AcRTDxfName
1000
VISUALSTYLE
1000
AcRTDxfName
1000
VISUALSTYLE
1000
AcRTDxfName
1000
VISUALSTYLE
  0
VISUALSTYLE
  5
64F
102
{ACAD_REACTORS
330
642
102
}
330
642
100
AcDbVisualStyle
  2
Thicken
 70
    13
 71
     2
 72
     2
 73
     0
 90
        0
 40
-0.6
 41
-30.0
 62
     5
 63
     7
 74
     1
 91
        4
 64
     7
 65
   257
 75
     1
175
     1
 42
1.0
 92
       12
 66
     7
 43
1.0
 76
     1
 77
     6
 78
     2
 67
     7
 79
     5
170
     0
171
     0
290
     0
174
     0
 93
        1
 44
0.0
173
     0
291
     1
 45
0.0
1001
ACAD
1000
AcRTDxfName
1000
VISUALSTYLE
1000
AcRTDxfName
1000
VISUALSTYLE
1000
AcRTDxfName
1000
VISUALSTYLE
1000
AcRTDxfName
1000
VISUALSTYLE
1000
AcRTDxfName
1000
VISUALSTYLE
1000
AcRTDxfName
1000
VISUALSTYLE
1000
AcRTDxfName
1000
VISUALSTYLE
1000
AcRTDxfName
1000
VISUALSTYLE
1000
AcRTDxfName
1000
VISUALSTYLE
1000
AcRTDxfName
1000
VISUALSTYLE
1000
AcRTDxfName
1000
VISUALSTYLE
1000
AcRTDxfName
1000
VISUALSTYLE
1000
AcRTDxfName
1000
VISUALSTYLE
1000
AcRTDxfName
1000
VISUALSTYLE
1000
AcRTDxfName
1000
VISUALSTYLE
1000
AcRTDxfName
1000
VISUALSTYLE
1000
AcRTDxfName
1000
VISUALSTYLE
1000
AcRTDxfName
1000
VISUALSTYLE
1000
AcRTDxfName
1000
VISUALSTYLE
1000
AcRTDxfName
1000
VISUALSTYLE
1000
AcRTDxfName
1000
VISUALSTYLE
1000
AcRTDxfName
1000
VISUALSTYLE
1000
AcRTDxfName
1000
VISUALSTYLE
1000
AcRTDxfName
1000
VISUALSTYLE
1000
AcRTDxfName
1000
VISUALSTYLE
1000
AcRTDxfName
1000
VISUALSTYLE
1000
AcRTDxfName
1000
VISUALSTYLE
1000
AcRTDxfName
1000
VISUALSTYLE
1000
AcRTDxfName
1000
VISUALSTYLE
1000
AcRTDxfName
1000
VISUALSTYLE
1000
AcRTDxfName
1000
VISUALSTYLE
  0
XRECORD
  5
A8DC
102
{ACAD_REACTORS
330
A8DA
102
}
330
A8DA
100
AcDbXrecord
280
     1
340
5F0
  0
XRECORD
  5
A8DB
102
{ACAD_REACTORS
330
A8DA
102
}
330
A8DA
100
AcDbXrecord
280
     1
340
5EF
  0
DICTIONARYVAR
  5
6A6
102
{ACAD_REACTORS
330
5E8
102
}
330
5E8
100
DictionaryVariables
280
     0
  1
STANDARD
  0
DICTIONARYVAR
  5
5E9
102
{ACAD_REACTORS
330
5E8
102
}
330
5E8
100
DictionaryVariables
280
     0
  1
1
  0
DICTIONARYVAR
  5
6A8
102
{ACAD_REACTORS
330
5E8
102
}
330
5E8
100
DictionaryVariables
280
     0
  1
0
  0
DICTIONARYVAR
  5
5FB
102
{ACAD_REACTORS
330
5E8
102
}
330
5E8
100
DictionaryVariables
280
     0
  1

  0
DICTIONARYVAR
  5
6A7
102
{ACAD_REACTORS
330
5E8
102
}
330
5E8
100
DictionaryVariables
280
     0
  1
127
  0
XRECORD
  5
4B5E
102
{ACAD_REACTORS
330
4B5C
102
}
330
4B5C
100
AcDbXrecord
280
     1
330
0
330
7
330
D7
330
F3
330
11E
330
192
330
194
330
1B4
330
1C3
330
1D1
330
1D3
330
1D5
330
0
330
1C
330
22
330
2B
330
2C
330
0
330
0
330
0
330
0
330
0
330
0
330
0
330
0
330
0
330
0
330
0
330
0
330
0
330
0
330
0
330
0
330
0
330
0
330
0
330
0
330
0
330
0
330
0
330
0
330
0
330
0
330
0
330
0
330
0
330
0
330
0
330
0
330
0
330
0
330
0
330
0
330
0
330
0
330
0
330
0
330
0
330
0
330
0
330
0
330
0
  0
XRECORD
  5
5DC
102
{ACAD_REACTORS
330
5DB
102
}
330
0
100
AcDbXrecord
280
     1
330
0
330
0
330
0
330
0
330
0
330
0
330
0
330
0
330
0
330
0
330
0
330
0
330
0
330
0
330
0
330
0
330
0
330
0
330
0
330
0
330
0
330
0
330
0
330
0
330
0
330
0
  0
ENDSEC
  0
EOF
