  0
SECTION
  2
HEADER
  9
$ACADVER
  1
AC1015
  9
$ACADMAINTVER
 70
    20
  9
$DWGCODEPAGE
  3
ANSI_1252
  9
$INSBASE
 10
0.0
 20
0.0
 30
0.0
  9
$EXTMIN
 10
1.599099271262275
 20
-0.0414663430514253
 30
0.0
  9
$EXTMAX
 10
57.88860132221102
 20
66.68415716553664
 30
0.0
  9
$LIMMIN
 10
-7.171622999999999
 20
-8.920795
  9
$LIMMAX
 10
78.88788599999999
 20
63.67005500000001
  9
$ORTHOMODE
 70
     1
  9
$REGENMODE
 70
     1
  9
$FILLMODE
 70
     1
  9
$QTEXTMODE
 70
     0
  9
$MIRRTEXT
 70
     0
  9
$LTSCALE
 40
1.0
  9
$ATTMODE
 70
     1
  9
$TEXTSIZE
 40
1.283301258443806
  9
$TRACEWID
 40
0.05
  9
$TEXTSTYLE
  7
STANDARD
  9
$CLAYER
  8
OBJECT
  9
$CELTYPE
  6
BYLAYER
  9
$CECOLOR
 62
   256
  9
$CELTSCALE
 40
1.0
  9
$DISPSILH
 70
     0
  9
$DIMSCALE
 40
10.0
  9
$DIMASZ
 40
0.025
  9
$DIMEXO
 40
0.0625
  9
$DIMDLI
 40
0.1
  9
$DIMRND
 40
0.0
  9
$DIMDLE
 40
0.0
  9
$DIMEXE
 40
0.04
  9
$DIMTP
 40
0.0
  9
$DIMTM
 40
0.0
  9
$DIMTXT
 40
0.07
  9
$DIMCEN
 40
0.09
  9
$DIMTSZ
 40
0.0
  9
$DIMTOL
 70
     0
  9
$DIMLIM
 70
     0
  9
$DIMTIH
 70
     1
  9
$DIMTOH
 70
     1
  9
$DIMSE1
 70
     0
  9
$DIMSE2
 70
     0
  9
$DIMTAD
 70
     0
  9
$DIMZIN
 70
     9
  9
$DIMBLK
  1

  9
$DIMASO
 70
     1
  9
$DIMSHO
 70
     1
  9
$DIMPOST
  1

  9
$DIMAPOST
  1

  9
$DIMALT
 70
     0
  9
$DIMALTD
 70
     2
  9
$DIMALTF
 40
25.4
  9
$DIMLFAC
 40
1.0
  9
$DIMTOFL
 70
     0
  9
$DIMTVP
 40
0.0
  9
$DIMTIX
 70
     0
  9
$DIMSOXD
 70
     0
  9
$DIMSAH
 70
     1
  9
$DIMBLK1
  1
DOT
  9
$DIMBLK2
  1
DOT
  9
$DIMSTYLE
  2
STANDARD
  9
$DIMCLRD
 70
     0
  9
$DIMCLRE
 70
     0
  9
$DIMCLRT
 70
     0
  9
$DIMTFAC
 40
1.0
  9
$DIMGAP
 40
0.04
  9
$DIMJUST
 70
     0
  9
$DIMSD1
 70
     0
  9
$DIMSD2
 70
     0
  9
$DIMTOLJ
 70
     1
  9
$DIMTZIN
 70
     8
  9
$DIMALTZ
 70
     0
  9
$DIMALTTZ
 70
     0
  9
$DIMUPT
 70
     0
  9
$DIMDEC
 70
     3
  9
$DIMTDEC
 70
     3
  9
$DIMALTU
 70
     2
  9
$DIMALTTD
 70
     2
  9
$DIMTXSTY
  7
STANDARD
  9
$DIMAUNIT
 70
     0
  9
$DIMADEC
 70
     0
  9
$DIMALTRND
 40
0.0
  9
$DIMAZIN
 70
     0
  9
$DIMDSEP
 70
    46
  9
$DIMATFIT
 70
     3
  9
$DIMFRAC
 70
     0
  9
$DIMLDRBLK
  1
DOT
  9
$DIMLUNIT
 70
     2
  9
$DIMLWD
 70
    -2
  9
$DIMLWE
 70
    -2
  9
$DIMTMOVE
 70
     0
  9
$LUNITS
 70
     2
  9
$LUPREC
 70
     4
  9
$SKETCHINC
 40
0.1
  9
$FILLETRAD
 40
0.0
  9
$AUNITS
 70
     0
  9
$AUPREC
 70
     0
  9
$MENU
  1
.
  9
$ELEVATION
 40
0.0
  9
$PELEVATION
 40
0.0
  9
$THICKNESS
 40
0.0
  9
$LIMCHECK
 70
     0
  9
$CHAMFERA
 40
0.0
  9
$CHAMFERB
 40
0.0
  9
$CHAMFERC
 40
0.0
  9
$CHAMFERD
 40
0.0
  9
$SKPOLY
 70
     0
  9
$TDCREATE
 40
2455376.652401505
  9
$TDUCREATE
 40
2455376.860734838
  9
$TDUPDATE
 40
2456867.510099167
  9
$TDUUPDATE
 40
2456867.718432500
  9
$TDINDWG
 40
0.0184165856
  9
$TDUSRTIMER
 40
0.0184165856
  9
$USRTIMER
 70
     1
  9
$ANGBASE
 50
0.0
  9
$ANGDIR
 70
     0
  9
$PDMODE
 70
     2
  9
$PDSIZE
 40
0.4
  9
$PLINEWID
 40
0.0
  9
$SPLFRAME
 70
     0
  9
$SPLINETYPE
 70
     6
  9
$SPLINESEGS
 70
     8
  9
$HANDSEED
  5
2B36
  9
$SURFTAB1
 70
     6
  9
$SURFTAB2
 70
     6
  9
$SURFTYPE
 70
     6
  9
$SURFU
 70
     6
  9
$SURFV
 70
     6
  9
$UCSBASE
  2

  9
$UCSNAME
  2

  9
$UCSORG
 10
0.0
 20
0.0
 30
0.0
  9
$UCSXDIR
 10
1.0
 20
0.0
 30
0.0
  9
$UCSYDIR
 10
0.0
 20
1.0
 30
0.0
  9
$UCSORTHOREF
  2

  9
$UCSORTHOVIEW
 70
     0
  9
$UCSORGTOP
 10
0.0
 20
0.0
 30
0.0
  9
$UCSORGBOTTOM
 10
0.0
 20
0.0
 30
0.0
  9
$UCSORGLEFT
 10
0.0
 20
0.0
 30
0.0
  9
$UCSORGRIGHT
 10
0.0
 20
0.0
 30
0.0
  9
$UCSORGFRONT
 10
0.0
 20
0.0
 30
0.0
  9
$UCSORGBACK
 10
0.0
 20
0.0
 30
0.0
  9
$PUCSBASE
  2

  9
$PUCSNAME
  2

  9
$PUCSORG
 10
0.0
 20
0.0
 30
0.0
  9
$PUCSXDIR
 10
1.0
 20
0.0
 30
0.0
  9
$PUCSYDIR
 10
0.0
 20
1.0
 30
0.0
  9
$PUCSORTHOREF
  2

  9
$PUCSORTHOVIEW
 70
     0
  9
$PUCSORGTOP
 10
0.0
 20
0.0
 30
0.0
  9
$PUCSORGBOTTOM
 10
0.0
 20
0.0
 30
0.0
  9
$PUCSORGLEFT
 10
0.0
 20
0.0
 30
0.0
  9
$PUCSORGRIGHT
 10
0.0
 20
0.0
 30
0.0
  9
$PUCSORGFRONT
 10
0.0
 20
0.0
 30
0.0
  9
$PUCSORGBACK
 10
0.0
 20
0.0
 30
0.0
  9
$USERI1
 70
     0
  9
$USERI2
 70
     0
  9
$USERI3
 70
     0
  9
$USERI4
 70
     0
  9
$USERI5
 70
     0
  9
$USERR1
 40
0.0
  9
$USERR2
 40
0.0
  9
$USERR3
 40
0.0
  9
$USERR4
 40
0.0
  9
$USERR5
 40
0.0
  9
$WORLDVIEW
 70
     0
  9
$SHADEDGE
 70
     3
  9
$SHADEDIF
 70
    70
  9
$TILEMODE
 70
     1
  9
$MAXACTVP
 70
    16
  9
$PINSBASE
 10
0.0
 20
0.0
 30
0.0
  9
$PLIMCHECK
 70
     0
  9
$PEXTMIN
 10
1.000000000000000E+20
 20
1.000000000000000E+20
 30
1.000000000000000E+20
  9
$PEXTMAX
 10
-1.000000000000000E+20
 20
-1.000000000000000E+20
 30
-1.000000000000000E+20
  9
$PLIMMIN
 10
0.0
 20
0.0
  9
$PLIMMAX
 10
12.0
 20
9.0
  9
$UNITMODE
 70
     0
  9
$VISRETAIN
 70
     0
  9
$PLINEGEN
 70
     0
  9
$PSLTSCALE
 70
     1
  9
$TREEDEPTH
 70
  3020
  9
$CMLSTYLE
  2
STANDARD
  9
$CMLJUST
 70
     0
  9
$CMLSCALE
 40
1.0
  9
$PROXYGRAPHICS
 70
     1
  9
$MEASUREMENT
 70
     0
  9
$CELWEIGHT
370
    -1
  9
$ENDCAPS
280
     0
  9
$JOINSTYLE
280
     0
  9
$LWDISPLAY
290
     0
  9
$INSUNITS
 70
     0
  9
$HYPERLINKBASE
  1

  9
$STYLESHEET
  1
monochrome.ctb
  9
$XEDIT
290
     1
  9
$CEPSNTYPE
380
     0
  9
$PSTYLEMODE
290
     1
  9
$FINGERPRINTGUID
  2
{3EF89B69-6A89-4E6C-9A00-9246173803FE}
  9
$VERSIONGUID
  2
{5C781683-4D59-4CF0-A6E9-9A07B13E80F6}
  9
$EXTNAMES
290
     1
  9
$PSVPSCALE
 40
0.0
  9
$OLESTARTUP
290
     0
  0
ENDSEC
  0
SECTION
  2
CLASSES
  0
CLASS
  1
IDBUFFER
  2
AcDbIdBuffer
  3
ObjectDBX Classes
 90
    32768
280
     0
281
     0
  0
CLASS
  1
SPATIAL_FILTER
  2
AcDbSpatialFilter
  3
ObjectDBX Classes
 90
    32768
280
     0
281
     0
  0
CLASS
  1
ACDBDICTIONARYWDFLT
  2
AcDbDictionaryWithDefault
  3
ObjectDBX Classes
 90
        0
280
     0
281
     0
  0
CLASS
  1
ACDBPLACEHOLDER
  2
AcDbPlaceHolder
  3
ObjectDBX Classes
 90
        0
280
     0
281
     0
  0
CLASS
  1
LAYOUT
  2
AcDbLayout
  3
ObjectDBX Classes
 90
        0
280
     0
281
     0
  0
CLASS
  1
DICTIONARYVAR
  2
AcDbDictionaryVar
  3
ObjectDBX Classes
 90
        0
280
     0
281
     0
  0
CLASS
  1
MATERIAL
  2
AcDbMaterial
  3
ObjectDBX Classes
 90
     1024
280
     0
281
     0
  0
CLASS
  1
VISUALSTYLE
  2
AcDbVisualStyle
  3
ObjectDBX Classes
 90
     4095
280
     0
281
     0
  0
CLASS
  1
TABLESTYLE
  2
AcDbTableStyle
  3
ObjectDBX Classes
 90
     4095
280
     0
281
     0
  0
CLASS
  1
SORTENTSTABLE
  2
AcDbSortentsTable
  3
ObjectDBX Classes
 90
        0
280
     0
281
     0
  0
ENDSEC
  0
SECTION
  2
TABLES
  0
TABLE
  2
VPORT
  5
35D
102
{ACAD_XDICTIONARY
360
2AEE
102
}
330
0
100
AcDbSymbolTable
 70
     1
  0
VPORT
  5
2A2C
330
35D
100
AcDbSymbolTableRecord
100
AcDbViewportTableRecord
  2
*Active
 70
     0
 10
0.0
 20
0.0
 11
1.0
 21
1.0
 12
29.74153656562644
 22
33.32305697452259
 13
0.0
 23
0.0
 14
1.0
 24
1.0
 15
0.0
 25
0.0
 16
0.0
 26
0.0
 36
1.0
 17
0.0
 27
0.0
 37
0.0
 40
67.26579198520685
 41
2.051587301587301
 42
50.0
 43
0.0
 44
0.0
 50
0.0
 51
0.0
 71
     0
 72
   100
 73
     1
 74
     1
 75
     0
 76
     0
 77
     0
 78
     2
281
     0
 65
     1
110
0.0
120
0.0
130
0.0
111
1.0
121
0.0
131
0.0
112
0.0
122
1.0
132
0.0
 79
     0
146
0.0
  0
ENDTAB
  0
TABLE
  2
LTYPE
  5
358
330
0
100
AcDbSymbolTable
 70
     2
  0
LTYPE
  5
359
330
358
100
AcDbSymbolTableRecord
100
AcDbLinetypeTableRecord
  2
BYBLOCK
 70
     0
  3

 72
    65
 73
     0
 40
0.0
  0
LTYPE
  5
35A
330
358
100
AcDbSymbolTableRecord
100
AcDbLinetypeTableRecord
  2
BYLAYER
 70
     0
  3

 72
    65
 73
     0
 40
0.0
  0
LTYPE
  5
5
330
358
100
AcDbSymbolTableRecord
100
AcDbLinetypeTableRecord
  2
CONTINUOUS
 70
     0
  3
Solid line
 72
    65
 73
     0
 40
0.0
  0
LTYPE
  5
18CA
330
358
100
AcDbSymbolTableRecord
100
AcDbLinetypeTableRecord
  2
CENTER2
 70
     0
  3
Center (.5x) ___ _ ___ _ ___ _ ___ _ ___ _ ___
 72
    65
 73
     4
 40
1.125
 49
0.75
 74
     0
 49
-0.125
 74
     0
 49
0.125
 74
     0
 49
-0.125
 74
     0
  0
ENDTAB
  0
TABLE
  2
LAYER
  5
356
102
{ACAD_XDICTIONARY
360
2B08
102
}
330
0
100
AcDbSymbolTable
 70
     8
  0
LAYER
  5
4
330
356
100
AcDbSymbolTableRecord
100
AcDbLayerTableRecord
  2
0
 70
     0
 62
     7
  6
CONTINUOUS
370
    -3
390
5B6
  0
LAYER
  5
59
330
356
100
AcDbSymbolTableRecord
100
AcDbLayerTableRecord
  2
DIMENSIONS
 70
     0
 62
     2
  6
CONTINUOUS
370
    -3
390
5B6
  0
LAYER
  5
4E
330
356
100
AcDbSymbolTableRecord
100
AcDbLayerTableRecord
  2
OBJECT
 70
     0
 62
     7
  6
CONTINUOUS
370
    -3
390
5B6
  0
LAYER
  5
2E
330
356
100
AcDbSymbolTableRecord
100
AcDbLayerTableRecord
  2
SSINFO_FRZ
 70
     0
 62
     7
  6
CONTINUOUS
370
    -3
390
5B6
  0
LAYER
  5
1FB
330
356
100
AcDbSymbolTableRecord
100
AcDbLayerTableRecord
  2
DEFPOINTS
 70
     0
 62
     7
  6
CONTINUOUS
290
     0
370
    -3
390
5B6
  0
LAYER
  5
18CB
330
356
100
AcDbSymbolTableRecord
100
AcDbLayerTableRecord
  2
BACKGROUND
 70
     0
 62
     3
  6
CONTINUOUS
370
    -3
390
5B6
  0
LAYER
  5
2B06
330
356
100
AcDbSymbolTableRecord
100
AcDbLayerTableRecord
  2
Rough_In
 70
     0
 62
     3
  6
CENTER2
370
    -3
390
5B6
1001
AcAecLayerStandard
1000

1000

  0
ENDTAB
  0
TABLE
  2
STYLE
  5
357
330
0
100
AcDbSymbolTable
 70
     1
  0
STYLE
  5
6
330
357
100
AcDbSymbolTableRecord
100
AcDbTextStyleTableRecord
  2
STANDARD
 70
     0
 40
0.0
 41
1.0
 50
0.0
 71
     0
 42
1.283301258443806
  3
romans.shx
  4

  0
ENDTAB
  0
TABLE
  2
VIEW
  5
35B
330
0
100
AcDbSymbolTable
 70
     0
  0
ENDTAB
  0
TABLE
  2
UCS
  5
35C
330
0
100
AcDbSymbolTable
 70
     0
  0
ENDTAB
  0
TABLE
  2
APPID
  5
35F
330
0
100
AcDbSymbolTable
 70
     6
  0
APPID
  5
332
330
35F
100
AcDbSymbolTableRecord
100
AcDbRegAppTableRecord
  2
ACAD
 70
     0
  0
APPID
  5
32
330
35F
100
AcDbSymbolTableRecord
100
AcDbRegAppTableRecord
  2
_DES112SSJYHX
 70
     0
  0
APPID
  5
3D7
330
35F
100
AcDbSymbolTableRecord
100
AcDbRegAppTableRecord
  2
ABNSLEADERTOOLS
 70
     0
  0
APPID
  5
882
330
35F
100
AcDbSymbolTableRecord
100
AcDbRegAppTableRecord
  2
_PUN112SSJYHX
 70
     0
  0
APPID
  5
2A4F
330
35F
100
AcDbSymbolTableRecord
100
AcDbRegAppTableRecord
  2
ACAD_EXEMPT_FROM_CAD_STANDARDS
 70
     0
  0
APPID
  5
2B07
330
35F
100
AcDbSymbolTableRecord
100
AcDbRegAppTableRecord
  2
AcAecLayerStandard
 70
     0
  0
ENDTAB
  0
TABLE
  2
DIMSTYLE
  5
360
330
0
100
AcDbSymbolTable
 70
     1
100
AcDbDimStyleTable
 71
     1
340
1EE
  0
DIMSTYLE
105
1EE
330
360
100
AcDbSymbolTableRecord
100
AcDbDimStyleTableRecord
  2
STANDARD
 70
     0
 40
10.0
 41
0.025
 43
0.1
 44
0.04
 78
     9
140
0.07
147
0.04
173
     1
271
     3
272
     3
284
     8
340
6
341
1EF
343
1EF
344
1EF
  0
ENDTAB
  0
TABLE
  2
BLOCK_RECORD
  5
1
330
0
100
AcDbSymbolTable
 70
     3
  0
BLOCK_RECORD
  5
2
102
{ACAD_XDICTIONARY
360
2A57
102
}
330
1
100
AcDbSymbolTableRecord
100
AcDbBlockTableRecord
  2
*MODEL_SPACE
340
5B9
  0
BLOCK_RECORD
  5
353
330
1
100
AcDbSymbolTableRecord
100
AcDbBlockTableRecord
  2
*PAPER_SPACE
340
5BA
  0
BLOCK_RECORD
  5
2F
330
1
100
AcDbSymbolTableRecord
100
AcDbBlockTableRecord
  2
_DES112SSJYHX_NIL
340
0
102
{BLKREFS
331
8B1
102
}
  0
BLOCK_RECORD
  5
1EF
330
1
100
AcDbSymbolTableRecord
100
AcDbBlockTableRecord
  2
_DOT
340
0
  0
BLOCK_RECORD
  5
87F
330
1
100
AcDbSymbolTableRecord
100
AcDbBlockTableRecord
  2
_PUN112SSJYHX_NIL
340
0
102
{BLKREFS
331
8C1
102
}
  0
ENDTAB
  0
ENDSEC
  0
SECTION
  2
BLOCKS
  0
BLOCK
  5
351
330
2
100
AcDbEntity
  8
0
100
AcDbBlockBegin
  2
*MODEL_SPACE
 70
     0
 10
0.0
 20
0.0
 30
0.0
  3
*MODEL_SPACE
  1

  0
ENDBLK
  5
352
330
2
100
AcDbEntity
  8
0
100
AcDbBlockEnd
  0
BLOCK
  5
354
330
353
100
AcDbEntity
 67
     1
  8
0
100
AcDbBlockBegin
  2
*PAPER_SPACE
 70
     0
 10
0.0
 20
0.0
 30
0.0
  3
*PAPER_SPACE
  1

  0
ENDBLK
  5
355
330
353
100
AcDbEntity
 67
     1
  8
0
100
AcDbBlockEnd
  0
BLOCK
  5
30
330
2F
100
AcDbEntity
  8
0
100
AcDbBlockBegin
  2
_DES112SSJYHX_NIL
 70
     0
 10
0.0
 20
0.0
 30
0.0
  3
_DES112SSJYHX_NIL
  1
_DES112SSJYHX_NIL
  0
ENDBLK
  5
31
330
2F
100
AcDbEntity
  8
SSINFO_FRZ
100
AcDbBlockEnd
  0
BLOCK
  5
1F5
330
1EF
100
AcDbEntity
  8
0
100
AcDbBlockBegin
  2
_DOT
 70
     0
 10
0.0
 20
0.0
 30
0.0
  3
_DOT
  1

  0
LWPOLYLINE
  5
1F0
330
1EF
100
AcDbEntity
  8
0
  6
ByBlock
 62
     0
100
AcDbPolyline
 90
        2
 70
     1
 43
0.5
 10
-0.25
 20
0.0
 42
1.0
 10
0.25
 20
0.0
 42
1.0
  0
LINE
  5
1F4
330
1EF
100
AcDbEntity
  8
0
  6
ByBlock
 62
     0
100
AcDbLine
 10
-0.5
 20
0.0
 30
0.0
 11
-1.0
 21
0.0
 31
0.0
  0
ENDBLK
  5
1F6
330
1EF
100
AcDbEntity
  8
0
100
AcDbBlockEnd
  0
BLOCK
  5
880
330
87F
100
AcDbEntity
  8
0
100
AcDbBlockBegin
  2
_PUN112SSJYHX_NIL
 70
     0
 10
0.0
 20
0.0
 30
0.0
  3
_PUN112SSJYHX_NIL
  1
_PUN112SSJYHX_NIL
  0
ENDBLK
  5
881
330
87F
100
AcDbEntity
  8
SSINFO_FRZ
100
AcDbBlockEnd
  0
ENDSEC
  0
SECTION
  2
ENTITIES
  0
MTEXT
  5
3
330
2
100
AcDbEntity
  8
0
  6
Continuous
100
AcDbMText
 10
8.837253973492465
 20
44.5964389374387
 30
0.0
 40
0.2
 41
3.366865526589492
 71
     1
 72
     5
  1

 73
     1
 44
1.0
1001
ACAD
1000
MTEXTBEGIN
1070
    73
1070
     1
1070
    44
1040
1.0
1070
    74
1070
     0
1000
MTEXTEND
  0
INSERT
  5
8B1
330
2
100
AcDbEntity
  8
SSINFO_FRZ
100
AcDbBlockReference
  2
_DES112SSJYHX_NIL
 10
61.92003856233393
 20
17.47861869757653
 30
0.0
1001
_DES112SSJYHX
1002
{
1004
336472656C6965660000F7BFE0F9FBBF7742F7BF302E313020202020202020202020205F5352202900100400009A9999999999B93F000000000000000000000000000000000000000000000000000000000000000000
1004
415243494E5350540000F7BFE0F9FBBF7742F7BF3120202020202020202020205F494E20290A0000002E0400000100000000000000000000000000000000000000000000000000000000000000000000000000000000
1004
41524350590050540000F7BFE0F9FBBF7742F7BF3020202020202020202020205F494E20290A0000002E0400000000000000000000000000000000000000000000000000000000000000000000000000000000000000
1004
41524352440050540000F7BFE0F9FBBF7742F7BF3020202020202020202020205F494E20290A0000002E0400000000000000000000000000000000000000000000000000000000000000000000000000000000000000
1004
415243594C0050540000F7BFE0F9FBBF7742F7BF302E352020202020202020205F535220290A00000010040000000000000000E03F2E2500000000008B13000000000000000000000000000000000000000000000000
1004
6175746F5F6170705F6C64004E6F20494D50455249414C2044696D7374796C6520466F756E642E0A002E04000001000000000000000000000000000000000000380719008008B0022408B002C807B0026C07B002EC39
1004
626F725F636F6C00626F7264657200007068616E746F6D007468640061757072656300005F68616E00E803000079656C6C6F770000000000000000000000000000000000000000000000000000000000000000000000
1004
626F725F6C6179007068615F6C617965720000007468645F6C6179657200000073735F667564676500E8030000626F726465720000000000000000000000000000000000000000000000000000000000000000000000
1004
436E74746F67676C6500F7BFE0F9FBBF7742F7BF22416C6C0020202020202020202020205F53545200E8030000416C6C0020202020202020202020205F535452290A0000022CF8BFFFFFFF7F000049034CF84D031C00
1004
6374725F636F6C6F7200F7BFE0F9FBBF7742F7BF227265640020202020202020202020205F53545200E80300007265640020202020202020202020205F535452290A0000022CF8BFFFFFFF7F000049034CF84D031C00
1004
6374725F657874007200F7BFE0F9FBBF7742F7BF302E36202020202020202020202020205F5352200010040000333333333333E33F000000000000000000000000000000000000000000000000000000000000000000
1004
6374725F6C6179657200F7BFE0F9FBBF7742F7BF226374720020202020202020202020205F53545200E80300006374720020202020202020202020205F535452290A0000022CF8BFFFFFFF7F000049034CF84D031C00
1004
6374725F6C6E73004297F7BFE0F9FBBF7742F7BF225900202020202020202020202020205F53545200E80300005900202020202020202020202020205F535452290A0000022CF8BFFFFFFF7F000049034CF84D031C00
1004
637573745F6E616D6500F7BFE0F9FBBF7742F7BF22737472696B657200202020202020205F53545200E8030000737472696B657200202020202020205F535452290A0000022CF8BFFFFFFF7F000049034CF84D031C00
1004
44484F4C4550524F5400F7BFE0F9FBBF7742F7BF3020202020202020202020205F494E20290A0000002E0400000000000000000000000000000000000000000000000000000000000000000000000000000000000000
1004
44484F4C455058004500F7BFE0F9FBBF7742F7BF3020202020202020202020205F494E20290A0000002E0400000000000000000000000000000000000000000000000000000000000000000000000000000000000000
1004
44484F4C455059004500F7BFE0F9FBBF7742F7BF3020202020202020202020205F494E20290A0000002E0400000000000000000000000000000000000000000000000000000000000000000000000000000000000000
1004
44484F4C455244005400F7BFE0F9FBBF7742F7BF3020202020202020202020205F494E20290A0000002E0400000000000000000000000000000000000000000000000000000000000000000000000000000000000000
1004
44484F4C45524F540000F7BFE0F9FBBF7742F7BF302E302020202020202020205F535220290A000000100400000000000000000000062500000000008B13000000000000000000000000000000000000000000000000
1004
44484F4C455459504500F7BFE0F9FBBF7742F7BF3020202020202020202020205F494E20290A0000002E0400000000000000000000000000000000000000000000000000000000000000000000000000000000000000
1004
44484F4C45584C005400F7BFE0F9FBBF7742F7BF302E373520202020202020205F535220290A00000010040000000000000000E83F000000000000000000000000000000000000000000000000000000000000000000
1004
44484F4C45594C005400F7BFE0F9FBBF7742F7BF312E302020202020202020205F535220290A00000010040000000000000000F03F000000000000000000000000000000000000000000000000000000000000000000
1004
64696D5F636F6C6F7200F7BFE0F9FBBF7742F7BF22677265656E002020202020202020205F53545200E8030000677265656E002020202020202020205F535452290A0000022CF8BFFFFFFF7F000049034CF84D031C00
1004
64696D5F6C6179657200F7BFE0F9FBBF7742F7BF2264696D0020202020202020202020205F53545200E803000064696D0020202020202020202020205F535452290A0000022CF8BFFFFFFF7F000049034CF84D031C00
1004
44494D50524500540000F7BFE0F9FBBF7742F7BF302E302020202020202020205F535220290A000000100400000000000000000000000000000000000000000000000000000000000000000000000000000000000000
1004
44494D50524543000000F7BFE0F9FBBF7742F7BF342020202020202020202020205F494E20290A00002E0400000400000000000000000000000000000000000000000000000000000000000000000000000000000000
1004
44494D53554600540000F7BFE0F9FBBF7742F7BF302E302020202020202020205F535220290A000000100400000000000000000000000000000000000000000000000000000000000000000000000000000000000000
1004
4457475F5343414C4500F7BFE0F9FBBF7742F7BF312E30202020202020202020202020205F5352200010040000000000000000F03F000000000000000000000000000000000000000000000000000000000000000000
1004
6631306B657900BF4297F7BFE0F9FBBF7742F7BF227373686F6C657300202020202020205F53545200E80300007373686F6C657300202020202020205F535452290A0000022CF8BFFFFFFF7F000049034CF84D031C00
1004
66356B65790000BF4297F7BFE0F9FBBF7742F7BF2273736472617700202020202020205F5354522900E803000073736472617700202020202020205F535452290A000000022CF8BFFFFFFF7F000049034CF84D031C00
1004
66366B65790000BF4297F7BFE0F9FBBF7742F7BF2273736564697400202020202020205F5354522900E803000073736564697400202020202020205F535452290A000000022CF8BFFFFFFF7F000049034CF84D031C00
1004
66376B65790000BF4297F7BFE0F9FBBF7742F7BF227373637265617465706172740020205F53545200E80300007373637265617465706172740020205F535452290A0000022CF8BFFFFFFF7F000049034CF84D031C00
1004
66386B65790000BF4297F7BFE0F9FBBF7742F7BF227373617070002020202020202020205F53545200E80300007373617070002020202020202020205F535452290A0000022CF8BFFFFFFF7F000049034CF84D031C00
1004
66396B65790000BF4297F7BFE0F9FBBF7742F7BF227373647261776661636500202020205F53545200E80300007373647261776661636500202020205F535452290A0000022CF8BFFFFFFF7F000049034CF84D031C00
1004
686F6C655F73697A6500F7BFE0F9FBBF7742F7BF302E353030202020202020202020205F535220290010040000000000000000E03F000000020000000000000000000000000000000000000000000000000000000000
1004
4B4559494E5350540000F7BFE0F9FBBF7742F7BF3020202020202020202020205F494E20290A0000002E0400000000000000000000000000080682020000000000000000000000000000000098000510000000000100
1004
4B45594D460045000000F7BFE0F9FBBF7742F7BF3020202020202020202020205F494E20290A0000002E040000000000000000000000000000000000000000000C8D8402000000000000000002000000000000000000
1004
4B45594F434300540000F7BFE0F9FBBF7742F7BF3020202020202020202020205F494E20290A0000002E040000000000002FDA0D9E0BB002D23FB002102FCE0D1A00B002063DB002494C000010002100504154544552
1004
4B455950520050540000F7BFE0F9FBBF7742F7BF3020202020202020202020205F494E20290A0000002E040000000000000000000000000000000000000000000000000000000000C808820200000000010000000000
1004
4B455950524F54000000F7BFE0F9FBBF7742F7BF3020202020202020202020205F494E20290A0000002E040000000000000000000000000000000000208D840200000000000000000200000000000000000000000000
1004
4B455950580050540000F7BFE0F9FBBF7742F7BF3020202020202020202020205F494E20290A0000002E0400000000000000000060052500000000008B13000000000000000000000000000000000000000000000000
1004
4B455950590050540000F7BFE0F9FBBF7742F7BF3020202020202020202020205F494E20290A0000002E0400000000000000000000000000000000000000000000000000000000000000000000000000000000000000
1004
4B455952414400540000F7BFE0F9FBBF7742F7BF312E302020202020202020205F535220290A00000010040000000000000000F03F002500000000008B13000000000000000000000000000000000000000000000000
1004
4B455952440000540000F7BFE0F9FBBF7742F7BF3020202020202020202020205F494E20290A0000002E04000000000000706C652F50726576696F75732F556E646F2F4155746F2F53496E676C650000000000000000
1004
4B4559524F5400540000F7BFE0F9FBBF7742F7BF302E302020202020202020205F535220290A000000100400000000000000000000002500000000008B13000000000000000000000000000000000000000000000000
1004
4B455954595045000000F7BFE0F9FBBF7742F7BF3120202020202020202020205F494E20290A0000002E04000001000000637473206120706F696E74206F722057696E646F772F4C6173742F43726F7373696E672F42
1004
4B4559584C0050540000F7BFE0F9FBBF7742F7BF302E352020202020202020205F535220290A00000010040000000000000000E03F000000000000000000000000000000000000000000000000000000000000000000
1004
4B4559594C0050540000F7BFE0F9FBBF7742F7BF302E323520202020202020205F535220290A00000010040000000000000000D03F2BF2011A00B0022A2FB00200000000000000000000000000000000000000000000
1004
6B66616300686B000000F7BFE0F9FBBF7742F7BF33332E333333332020202020202020205F5352200010040000DFE00B93A9AA4040000000000000000000000000000000000000000000000000000000000000000000
1004
4C6472746F67676C6500F7BFE0F9FBBF7742F7BF225461626C65002020202020202020205F53545200E80300005461626C65002020202020202020205F535452290A0000022CF8BFFFFFFF7F000049034CF84D031C00
1004
6C6F726E004543000000F7BFE0F9FBBF7742F7BF312020202020202020202020205F494E20290A00002E0400000100000000000000000000000000000000000000000000000000000000000000000000000000000000
1004
6D61745F74686B000000F7BFE0F9FBBF7742F7BF302E303632202020202020202020205F5352202900100400005839B4C876BEAF3F000000000000000000000000000000000000000000000000000000000000000000
1004
6D6174657269616C0000F7BFE0F9FBBF7742F7BF22535445454C2D302E323020434152424F4E284D00E8030000535445454C2D302E323020434152424F4E284D494C442900205F535452290A00000000000000000000
1004
6D657472696300000000F7BFE0F9FBBF7742F7BF226E00202020202020202020205F535452290A0000E80300006E00202020202020202020205F535452290A000000000000205F535452290A00000000000000000000
1004
4E4348414C0048000000F7BFE0F9FBBF7742F7BF312E302020202020202020205F535220290A00000010040000000000000000F03F000000000000000000000000000000000000000000000000000000000000000000
1004
4E4348424C0048000000F7BFE0F9FBBF7742F7BF312E302020202020202020205F535220290A00000010040000000000000000F03F000000000000000000000000000000000000000000000000000000000000000000
1004
4E4348444C0048000000F7BFE0F9FBBF7742F7BF312E302020202020202020205F535220290A00000010040000000000000000F03F000000000000000000000000000000000000000000000000000000000000000000
1004
4E4348494C0048000000F7BFE0F9FBBF7742F7BF39302E3020202020202020205F535220290A000000100400000000000000805640000000000000000000000000000000000000000000000000000000000000000000
1004
4E43484D455448000000F7BFE0F9FBBF7742F7BF3120202020202020202020205F494E20290A0000002E0400000100000000000000000000000000000000000000000000000000000000000000000000000000000000
1004
4E434850410000540000F7BFE0F9FBBF7742F7BF3020202020202020202020205F494E20290A0000002E0400000000000000000000000000000000000000000000000000000000000000000000000000000000000000
1004
4E434850420000540000F7BFE0F9FBBF7742F7BF3020202020202020202020205F494E20290A0000002E0400000000000000000000000000000000000000000000000000000000000000000000000000000000000000
1004
4E434850440000540000F7BFE0F9FBBF7742F7BF3020202020202020202020205F494E20290A0000002E04000000000000000000A8042500000000008B13000000000000000000000000000000000000000000000000
1004
4E434850490000540000F7BFE0F9FBBF7742F7BF3020202020202020202020205F494E20290A0000002E0400000000000000000000000000000000000000000000000000000000000000000000000000000000000000
1004
4E434850520000540000F7BFE0F9FBBF7742F7BF3020202020202020202020205F494E20290A0000002E040000000000002AB002D4002500000000008B13000000000000000000000000000000000000000000000000
1004
4E434850570000540000F7BFE0F9FBBF7742F7BF3020202020202020202020205F494E20290A0000002E0400000000000000000000000000000000000000000000000000000000000000000000000000000000000000
1004
4E4348524C0048000000F7BFE0F9FBBF7742F7BF302E323520202020202020205F535220290A00000010040000000000000000D03F002500000000008B13000000000000000000000000000000000000000000000000
1004
4E434854595000000000F7BFE0F9FBBF7742F7BF22534944450020202020202020205F535452290A00E8030000534944450020202020202020205F535452290A00000000022CF8BFFFFFFF7F000049034CF84D031C00
1004
4E4348574C0048000000F7BFE0F9FBBF7742F7BF302E302020202020202020205F535220290A000000100400000000000000000000002500000000008913000000000000D03F00000000000000000000000000000000
1004
4F4252494E5350540000F7BFE0F9FBBF7742F7BF3120202020202020202020205F494E20290A0000002E0400000100000000000000000000000000000000000000000000000000000000000000000000000000000000
1004
4F425250524F54000000F7BFE0F9FBBF7742F7BF3020202020202020202020205F494E20290A0000002E0400000000000031B0027031B0021431B002B830B0025C30B0020030B002A42FB00284000D0053494445002E
1004
4F425250580050540000F7BFE0F9FBBF7742F7BF3020202020202020202020205F494E20290A0000002E0400000000000000000000000000000000000000000000000000000000000000000000000000000000000000
1004
4F425250590050540000F7BFE0F9FBBF7742F7BF3020202020202020202020205F494E20290A0000002E0400000000000000000000000000000000000000000000000000000000000000000000000000000000000000
1004
4F4252524F5400000000F7BFE0F9FBBF7742F7BF302E302020202020202020205F535220290A000000100400000000000000000000000000000000000000000000000000000000000000000000000000000000000000
1004
4F425254595045000000F7BFE0F9FBBF7742F7BF3120202020202020202020205F494E20290A0000002E0400000100000000000000000000000000000000000000000000000000000000000000000000000000000000
1004
4F4252584C0045000000F7BFE0F9FBBF7742F7BF312E302020202020202020205F535220290A00000010040000000000000000F03F000000000000000000000000000000000000000000000000000000000000000000
1004
4F4252594C0045000000F7BFE0F9FBBF7742F7BF302E352020202020202020205F535220290A00000010040000000000000000E03F000000000000000000000000000000000000000000000000000000000000000000
1004
7068615F636F6C6F7200F7BFE0F9FBBF7742F7BF226D6167656E746100202020202020205F53545200E80300006D6167656E746100202020202020205F535452290A0000022CF8BFFFFFFF7F000049034CF84D031C00
1004
7068615F6C6179657200F7BFE0F9FBBF7742F7BF227068616E00202020202020202020205F53545200E80300007068616E00202020202020202020205F535452290A0000022CF8BFFFFFFF7F000049034CF84D031C00
1004
524354494E5350540000F7BFE0F9FBBF7742F7BF3120202020202020202020205F494E20290A0000002E0400000100000000000000000000000000000000000000000000000000000000000000000000000000000000
1004
52435450524F54006500F7BFE0F9FBBF7742F7BF3020202020202020202020205F494E20290A0000002E0400000000000000000000000000000000000000000000000000000000000000000000000000000000000000
1004
524354505800676C6500F7BFE0F9FBBF7742F7BF3020202020202020202020205F494E20290A0000002E04000000000000000000F0032500000000008B13000000000000000000000000000000000000000000000000
1004
524354505859006C6500F7BFE0F9FBBF7742F7BF3020202020202020202020205F494E20290A0000002E0400000000000000000000000000000000000000000000000000000000000000000000000000000000000000
1004
524354505900676C6500F7BFE0F9FBBF7742F7BF3020202020202020202020205F494E20290A0000002E0400000000000023B00220012500000000008B13000000000000000000000000000000000000000000000000
1004
524354524F5400540000F7BFE0F9FBBF7742F7BF302E302020202020202020205F535220290A000000100400000000000000000000000000000000000000000000000000000000000000000000000000000000000000
1004
526374746F67676C6500F7BFE0F9FBBF7742F7BF224E6F002020202020202020202020205F53545200E80300004E6F002020202020202020202020205F535452290A0000022CF8BFFFFFFF7F000049034CF84D031C00
1004
524354584C0050540000F7BFE0F9FBBF7742F7BF312E302020202020202020205F535220290A00000010040000000000000000F03F000000000000000000000000000000000000000000000000000000000000000000
1004
524354594C0050540000F7BFE0F9FBBF7742F7BF312E302020202020202020205F535220290A00000010040000000000000000F03F2AB0025C2AB002002AB002A429B0024829B002EC28B0029028B0023428B002D827
1004
524543544F47474C4500F7BFE0F9FBBF7742F7BF224F75747369646500202020202020205F53545200E80300004F75747369646500202020202020205F535452290A0000022CF8BFFFFFFF7F000049034CF84D031C00
1004
524E44494E5350540000F7BFE0F9FBBF7742F7BF3020202020202020202020205F494E20290A0000002E040000000000002BB002C4002500000000008913000000000000F03F00000000000000000000000000000000
1004
524E4450520045000000F7BFE0F9FBBF7742F7BF3020202020202020202020205F494E20290A0000002E0400000000000008820200000000000000000000000018088202000000000000000000000000B80782020000
1004
524E4452414400540000F7BFE0F9FBBF7742F7BF302E353020202020202020205F535220290A00000010040000000000000000E03F32B0028432B0022832B002CC31B0027031B0021431B0026C000D004F7574736964
1004
524E4452440000540000F7BFE0F9FBBF7742F7BF3020202020202020202020205F494E20290A0000002E0400000000000000000000000000000000005008820200000000000000000000000048088202000000000000
1004
73686561720065000000F7BFE0F9FBBF7742F7BF35303030302E302020202020202020205F535220001004000000000000006AE840002500000000008913000000000000E03F00000000000000000000000000000000
1004
73705F67726176000000F7BFE0F9FBBF7742F7BF302E323833342020202020202020205F535220290010040000FAEDEBC03923D23F0000000000000000000000881BF611063DB002D62DB00200000000000000000000
1004
73735F66756467650000F7BFE0F9FBBF7742F7BF302E303030303031202020202020205F53522029001004000048AFBC9AF2D77A3E000000000000000000000000000000000000000000000000000000000000000000
1004
7461705F6472696C6C00F7BFE0F9FBBF7742F7BF302E333132352020202020202020205F535220290010040000000000000000D43F0325000000000089132D431CEBE2361A3F00000000000000000000000000000000
1004
7461705F73697A650000F7BFE0F9FBBF7742F7BF302E333735302020202020202020205F535220290010040000000000000000D83F000000000000000000000000000000000000000000000000000000000000000000
1004
74656E73696C65000000F7BFE0F9FBBF7742F7BF37303030302E302020202020202020205F5352200010040000000000000017F140012500000000008913000000000000D43F00000000000000000000000000000000
1004
7468645F636F6C6F7200F7BFE0F9FBBF7742F7BF22626C756500202020202020202020205F53545200E8030000626C756500202020202020202020205F535452290A0000022CF8BFFFFFFF7F000049034CF84D031C00
1004
7468645F6C6179657200F7BFE0F9FBBF7742F7BF227468640020202020202020202020205F53545200E80300007468640020202020202020202020205F535452290A0000022CF8BFFFFFFF7F000049034CF84D031C00
1004
76657273696F6E004572726F723A204D656D6F727920416C6C6F636174696F6E20696E205353434F00E803000031345F3162000000616E676C650000007377617000000000E467A00210669D02D02EA10230679D0200
1004
77696E5F636F6C6F720000005F64657331313253534A59485800000077696E5F6C6179657200000000E8030000626C756500770000000000000000000000000000000000000000000000000000000000000000000000
1004
77696E5F6C617965720000005F7A6F6F6D0000005F616C6C000000005F647669657700005F6C000000E80300007373635F77696E646F7773000000000000000000000000000000000000000000000000000000000000
1002
}
  0
INSERT
  5
8C1
330
2
100
AcDbEntity
  8
SSINFO_FRZ
100
AcDbBlockReference
  2
_PUN112SSJYHX_NIL
 10
61.92003856233393
 20
17.47861869757653
 30
0.0
1001
_PUN112SSJYHX
1002
{
1004
76657273696F6E004572726F723A204D656D6F727920416C6C6F636174696F6E20696E205353434F00E803000031345F316200000031325F316100000076657273696F6E000A44656661756C74696E67202573207400
1002
}
  0
MTEXT
  5
183C
330
2
100
AcDbEntity
  8
DIMENSIONS
100
AcDbMText
 10
28.06503885903015
 20
15.65987557399423
 30
0.0
 40
0.4200000000000001
 41
0.5853000000000001
 71
     9
 72
     1
  1

 73
     1
 44
1.0
1001
ACAD
1000
MTEXTBEGIN
1070
    73
1070
     1
1070
    44
1040
1.0
1070
    74
1070
     0
1000
MTEXTEND
  0
LINE
  5
235C
330
2
100
AcDbEntity
  8
0
100
AcDbLine
 10
9.349183271262276
 20
61.54717066553665
 30
0.0
 11
9.16919027126228
 21
61.54717066553665
 31
0.0
  0
LINE
  5
235D
330
2
100
AcDbEntity
  8
0
100
AcDbLine
 10
9.369187271262276
 20
61.71417066553665
 30
0.0
 11
9.369187271262276
 21
61.56716766553664
 31
0.0
  0
LINE
  5
235E
330
2
100
AcDbEntity
  8
0
100
AcDbLine
 10
9.614197271262284
 20
61.73416766553664
 30
0.0
 11
9.389191271262276
 21
61.73416766553664
 31
0.0
  0
ARC
  5
235F
330
2
100
AcDbEntity
  8
0
100
AcDbCircle
 10
9.389191271262276
 20
61.71417066553665
 30
0.0
 40
0.02
100
AcDbArc
 50
90.0
 51
180.0
  0
ARC
  5
2360
330
2
100
AcDbEntity
  8
0
100
AcDbCircle
 10
-9.349183271262276
 20
61.56716766553664
 30
0.0
 40
0.02
210
0.0
220
0.0
230
-1.0
100
AcDbArc
 50
180.0
 51
270.0
  0
ARC
  5
2361
330
2
100
AcDbEntity
  8
0
100
AcDbCircle
 10
9.614197271262284
 20
61.75416366553666
 30
0.0
 40
0.02
100
AcDbArc
 50
270.0
 51
0.0
  0
LINE
  5
2362
330
2
100
AcDbEntity
  8
0
100
AcDbLine
 10
9.634186271262279
 20
62.68416466553664
 30
0.0
 11
9.634186271262279
 21
61.75416366553666
 31
0.0
  0
LINE
  5
2363
330
2
100
AcDbEntity
  8
0
100
AcDbLine
 10
7.809189271262283
 20
61.73416766553664
 30
0.0
 11
7.584183271262276
 21
61.73416766553664
 31
0.0
  0
LINE
  5
2364
330
2
100
AcDbEntity
  8
0
100
AcDbLine
 10
8.029191271262277
 20
61.54717066553665
 30
0.0
 11
7.849183271262276
 21
61.54717066553665
 31
0.0
  0
LINE
  5
2365
330
2
100
AcDbEntity
  8
0
100
AcDbLine
 10
7.829194271262281
 20
61.71417066553665
 30
0.0
 11
7.829194271262281
 21
61.56716766553664
 31
0.0
  0
ARC
  5
2366
330
2
100
AcDbEntity
  8
0
100
AcDbCircle
 10
7.849183271262276
 20
61.56716766553664
 30
0.0
 40
0.02
100
AcDbArc
 50
180.0
 51
270.0
  0
ARC
  5
2367
330
2
100
AcDbEntity
  8
0
100
AcDbCircle
 10
7.809189271262269
 20
61.71417066553665
 30
0.0
 40
0.02
100
AcDbArc
 50
0.0
 51
90.0
  0
ARC
  5
2368
330
2
100
AcDbEntity
  8
0
100
AcDbCircle
 10
-7.584183271262276
 20
61.75416366553666
 30
0.0
 40
0.02
210
0.0
220
0.0
230
-1.0
100
AcDbArc
 50
270.0
 51
0.0
  0
LINE
  5
2369
330
2
100
AcDbEntity
  8
0
100
AcDbLine
 10
7.56419427126228
 20
62.68416466553664
 30
0.0
 11
7.56419427126228
 21
61.75416366553666
 31
0.0
  0
LINE
  5
236A
330
2
100
AcDbEntity
  8
0
100
AcDbLine
 10
9.389191271262276
 20
61.73416766553664
 30
0.0
 11
7.809189271262283
 21
61.73416766553664
 31
0.0
  0
LINE
  5
236B
330
2
100
AcDbEntity
  8
0
100
AcDbLine
 10
9.16919027126228
 20
61.54717066553665
 30
0.0
 11
8.029191271262277
 21
61.54717066553665
 31
0.0
  0
LINE
  5
236C
330
2
100
AcDbEntity
  8
0
100
AcDbLine
 10
9.634186271262279
 20
62.68416466553664
 30
0.0
 11
7.56419427126228
 21
62.68416466553664
 31
0.0
  0
LINE
  5
236E
330
2
100
AcDbEntity
  8
OBJECT
100
AcDbLine
 10
46.52383170658107
 20
8.820562165536681
 30
0.0
 11
48.02383170658107
 21
8.820562165536681
 31
0.0
  0
LINE
  5
2370
330
2
100
AcDbEntity
  8
OBJECT
100
AcDbLine
 10
38.97147382918651
 20
12.36907209656848
 30
0.0
 11
38.51114449912855
 21
13.10574147083946
 31
0.0
  0
LINE
  5
237C
330
2
100
AcDbEntity
  8
OBJECT
100
AcDbLine
 10
57.88860132221102
 20
16.09956216553667
 30
0.0
 11
39.97148027126228
 21
16.09956216553667
 31
0.0
  0
LINE
  5
237D
330
2
100
AcDbEntity
  8
OBJECT
100
AcDbLine
 10
57.88025374792501
 20
15.77690298320568
 30
0.0
 11
57.88860132221102
 21
16.09956216553667
 31
0.0
  0
LINE
  5
237E
330
2
100
AcDbEntity
  8
OBJECT
100
AcDbLine
 10
57.86965312040699
 20
15.49331890017268
 30
0.0
 11
57.88025374792501
 21
15.77690298320568
 31
0.0
  0
LINE
  5
237F
330
2
100
AcDbEntity
  8
OBJECT
100
AcDbLine
 10
57.848215921575
 20
15.11831752469667
 30
0.0
 11
57.86965312040699
 21
15.49331890017268
 31
0.0
  0
LINE
  5
2380
330
2
100
AcDbEntity
  8
OBJECT
100
AcDbLine
 10
57.81106383571899
 20
14.75684300836967
 30
0.0
 11
57.848215921575
 21
15.11831752469667
 31
0.0
  0
LINE
  5
2381
330
2
100
AcDbEntity
  8
OBJECT
100
AcDbLine
 10
57.75608386801902
 20
14.37416977539768
 30
0.0
 11
57.81106383571899
 21
14.75684300836967
 31
0.0
  0
LINE
  5
2382
330
2
100
AcDbEntity
  8
OBJECT
100
AcDbLine
 10
57.706428398498
 20
14.14937735548767
 30
0.0
 11
57.75608386801902
 21
14.37416977539768
 31
0.0
  0
LINE
  5
2383
330
2
100
AcDbEntity
  8
OBJECT
100
AcDbLine
 10
57.628343882208
 20
13.87868170611867
 30
0.0
 11
57.706428398498
 21
14.14937735548767
 31
0.0
  0
LINE
  5
2384
330
2
100
AcDbEntity
  8
OBJECT
100
AcDbLine
 10
57.54216562083302
 20
13.64704968694867
 30
0.0
 11
57.628343882208
 21
13.87868170611867
 31
0.0
  0
LINE
  5
2385
330
2
100
AcDbEntity
  8
OBJECT
100
AcDbLine
 10
57.39542159249201
 20
13.36558074360367
 30
0.0
 11
57.54216562083302
 21
13.64704968694867
 31
0.0
  0
LINE
  5
2386
330
2
100
AcDbEntity
  8
OBJECT
100
AcDbLine
 10
57.23886271204602
 20
13.13431767192467
 30
0.0
 11
57.39542159249201
 21
13.36558074360367
 31
0.0
  0
LINE
  5
2387
330
2
100
AcDbEntity
  8
OBJECT
100
AcDbLine
 10
56.94791404372502
 20
12.81517925575367
 30
0.0
 11
57.23886271204602
 21
13.13431767192467
 31
0.0
  0
LINE
  5
2388
330
2
100
AcDbEntity
  8
OBJECT
100
AcDbLine
 10
56.74743774302403
 20
12.63050468095167
 30
0.0
 11
56.94791404372502
 21
12.81517925575367
 31
0.0
  0
LINE
  5
2389
330
2
100
AcDbEntity
  8
OBJECT
100
AcDbLine
 10
56.48432239733601
 20
12.39216669822668
 30
0.0
 11
56.74743774302403
 21
12.63050468095167
 31
0.0
  0
LINE
  5
238A
330
2
100
AcDbEntity
  8
OBJECT
100
AcDbLine
 10
56.25218835161302
 20
12.20121598268168
 30
0.0
 11
56.48432239733601
 21
12.39216669822668
 31
0.0
  0
LINE
  5
238B
330
2
100
AcDbEntity
  8
OBJECT
100
AcDbLine
 10
56.01246758308302
 20
12.02679987207368
 30
0.0
 11
56.25218835161302
 21
12.20121598268168
 31
0.0
  0
LINE
  5
238C
330
2
100
AcDbEntity
  8
OBJECT
100
AcDbLine
 10
55.59089875115403
 20
11.76513965023767
 30
0.0
 11
56.01246758308302
 21
12.02679987207368
 31
0.0
  0
LINE
  5
238D
330
2
100
AcDbEntity
  8
OBJECT
100
AcDbLine
 10
55.19095587088002
 20
11.53905640492867
 30
0.0
 11
55.59089875115403
 21
11.76513965023767
 31
0.0
  0
LINE
  5
238E
330
2
100
AcDbEntity
  8
OBJECT
100
AcDbLine
 10
54.54863538927101
 20
11.22420598000467
 30
0.0
 11
55.19095587088002
 21
11.53905640492867
 31
0.0
  0
LINE
  5
238F
330
2
100
AcDbEntity
  8
OBJECT
100
AcDbLine
 10
54.20432695526701
 20
11.06352378341967
 30
0.0
 11
54.54863538927101
 21
11.22420598000467
 31
0.0
  0
LINE
  5
2390
330
2
100
AcDbEntity
  8
OBJECT
100
AcDbLine
 10
53.81189200785501
 20
10.89776680962567
 30
0.0
 11
54.20432695526701
 21
11.06352378341967
 31
0.0
  0
LINE
  5
2391
330
2
100
AcDbEntity
  8
OBJECT
100
AcDbLine
 10
53.19226680235802
 20
10.64738643669167
 30
0.0
 11
53.81189200785501
 21
10.89776680962567
 31
0.0
  0
LINE
  5
2392
330
2
100
AcDbEntity
  8
OBJECT
100
AcDbLine
 10
52.60948724452003
 20
10.41255024673167
 30
0.0
 11
53.19226680235802
 21
10.64738643669167
 31
0.0
  0
LINE
  5
2393
330
2
100
AcDbEntity
  8
OBJECT
100
AcDbLine
 10
52.08705645092503
 20
10.20475455644167
 30
0.0
 11
52.60948724452003
 21
10.41255024673167
 31
0.0
  0
LINE
  5
2394
330
2
100
AcDbEntity
  8
OBJECT
100
AcDbLine
 10
51.59606132850301
 20
10.01246065358667
 30
0.0
 11
52.08705645092503
 21
10.20475455644167
 31
0.0
  0
LINE
  5
2395
330
2
100
AcDbEntity
  8
OBJECT
100
AcDbLine
 10
51.01366878177102
 20
9.80769177312467
 30
0.0
 11
51.59606132850301
 21
10.01246065358667
 31
0.0
  0
LINE
  5
2396
330
2
100
AcDbEntity
  8
OBJECT
100
AcDbLine
 10
50.54730330438402
 20
9.670382126385671
 30
0.0
 11
51.01366878177102
 21
9.80769177312467
 31
0.0
  0
LINE
  5
2397
330
2
100
AcDbEntity
  8
OBJECT
100
AcDbLine
 10
50.09938322984801
 20
9.547933444630675
 30
0.0
 11
50.54730330438402
 21
9.670382126385671
 31
0.0
  0
LINE
  5
2398
330
2
100
AcDbEntity
  8
OBJECT
100
AcDbLine
 10
49.59087118081102
 20
9.431746056762673
 30
0.0
 11
50.09938322984801
 21
9.547933444630675
 31
0.0
  0
LINE
  5
2399
330
2
100
AcDbEntity
  8
OBJECT
100
AcDbLine
 10
48.93682143012201
 20
9.289824274032671
 30
0.0
 11
49.59087118081102
 21
9.431746056762673
 31
0.0
  0
LINE
  5
239A
330
2
100
AcDbEntity
  8
OBJECT
100
AcDbLine
 10
48.34775001857401
 20
9.172318874824672
 30
0.0
 11
48.93682143012201
 21
9.289824274032671
 31
0.0
  0
LINE
  5
239B
330
2
100
AcDbEntity
  8
OBJECT
100
AcDbLine
 10
48.14757631213801
 20
9.099208084808676
 30
0.0
 11
48.34775001857401
 21
9.172318874824672
 31
0.0
  0
LINE
  5
239C
330
2
100
AcDbEntity
  8
OBJECT
100
AcDbLine
 10
47.99954072693201
 20
8.992424151609672
 30
0.0
 11
48.14757631213801
 21
9.099208084808676
 31
0.0
  0
LINE
  5
239D
330
2
100
AcDbEntity
  8
OBJECT
100
AcDbLine
 10
47.94775943165702
 20
8.84636672629767
 30
0.0
 11
47.99954072693201
 21
8.992424151609672
 31
0.0
  0
LINE
  5
239E
330
2
100
AcDbEntity
  8
OBJECT
100
AcDbLine
 10
47.94305165450363
 20
8.820562165536681
 30
0.0
 11
47.94775943165702
 21
8.84636672629767
 31
0.0
  0
LINE
  5
23A9
330
2
100
AcDbEntity
  8
OBJECT
100
AcDbLine
 10
36.95010535435786
 20
14.72205966553667
 30
0.0
 11
37.5045019253791
 21
15.84705966553667
 31
0.0
  0
LINE
  5
23AA
330
2
100
AcDbEntity
  8
OBJECT
100
AcDbLine
 10
34.78913327151453
 20
17.53502623375365
 30
0.0
 11
35.34352984253577
 21
18.66002623375365
 31
0.0
  0
LINE
  5
23AB
330
2
100
AcDbEntity
  8
OBJECT
100
AcDbLine
 10
35.34352984253577
 20
18.66002623375365
 30
0.0
 11
37.5045019253791
 21
15.84705966553667
 31
0.0
  0
LINE
  5
23AC
330
2
100
AcDbEntity
  8
OBJECT
100
AcDbLine
 10
34.78913327151453
 20
17.53502623375365
 30
0.0
 11
36.95010535435786
 21
14.72205966553667
 31
0.0
  0
LINE
  5
23AD
330
2
100
AcDbEntity
  8
OBJECT
100
AcDbLine
 10
36.95010535435786
 20
14.72205966553667
 30
0.0
 11
37.66522127126227
 21
14.72205966553667
 31
0.0
  0
LINE
  5
23AE
330
2
100
AcDbEntity
  8
OBJECT
100
AcDbLine
 10
37.5045019253791
 20
15.84705966553667
 30
0.0
 11
37.66522127126227
 21
15.84705966553667
 31
0.0
  0
LINE
  5
23B2
330
2
100
AcDbEntity
  8
OBJECT
100
AcDbLine
 10
29.47148027126228
 20
10.84752623375365
 30
0.0
 11
29.47148027126228
 21
13.84752623375365
 31
0.0
  0
ARC
  5
23B4
330
2
100
AcDbEntity
  8
OBJECT
100
AcDbCircle
 10
39.73020827126227
 20
13.86750900064831
 30
0.0
 40
1.4375
100
AcDbArc
 50
180.0
 51
212.0004036088376
  0
LINE
  5
23B5
330
2
100
AcDbEntity
  8
OBJECT
100
AcDbLine
 10
34.76183890403742
 20
10.84752623375365
 30
0.0
 11
29.47148027126228
 21
10.84752623375365
 31
0.0
  0
LINE
  5
23B6
330
2
100
AcDbEntity
  8
OBJECT
100
AcDbLine
 10
34.76183890403742
 20
13.84752623375365
 30
0.0
 11
29.47148027126228
 21
13.84752623375365
 31
0.0
  0
ARC
  5
23B7
330
2
100
AcDbEntity
  8
OBJECT
100
AcDbCircle
 10
34.76183890403742
 20
8.847526233753651
 30
0.0
 40
5.0
100
AcDbArc
 50
32.65584717946449
 51
90.0
  0
ARC
  5
23B8
330
2
100
AcDbEntity
  8
OBJECT
100
AcDbCircle
 10
34.76183890403742
 20
8.847526233753651
 30
0.0
 40
2.0
100
AcDbArc
 50
32.00000000000013
 51
90.0
  0
LINE
  5
23B9
330
2
100
AcDbEntity
  8
OBJECT
100
AcDbLine
 10
38.64294440421718
 20
6.410618920564591
 30
0.0
 11
36.45793509635029
 21
9.907364762220058
 31
0.0
  0
ARC
  5
23BA
330
2
100
AcDbEntity
  8
OBJECT
100
AcDbCircle
 10
43.02383170658107
 20
8.820562165536681
 30
0.0
 40
5.0
100
AcDbArc
 50
208.8153645550922
 51
215.8578631728563
  0
LINE
  5
23C2
330
2
100
AcDbEntity
  8
OBJECT
100
AcDbLine
 10
39.97148027126225
 20
7.107917802188811
 30
0.0
 11
39.97148027126228
 21
7.474562165536671
 31
0.0
  0
ARC
  5
23C3
330
2
100
AcDbEntity
  8
BACKGROUND
100
AcDbCircle
 10
43.02383170658107
 20
8.820562165536674
 30
0.0
 40
3.500000000000007
100
AcDbArc
 50
209.296354267326
 51
0.0
  0
LINE
  5
23C4
330
2
100
AcDbEntity
  8
BACKGROUND
100
AcDbLine
 10
45.05901144812482
 20
9.637349107932767
 30
0.0
 11
46.52383170658107
 21
8.820562165536674
 31
0.0
  0
LINE
  5
23C5
330
2
100
AcDbEntity
  8
BACKGROUND
100
AcDbLine
 10
42.27129997780493
 20
11.39200537246292
 30
0.0
 11
45.05901144812482
 21
9.637349107932767
 31
0.0
  0
LINE
  5
23C6
330
2
100
AcDbEntity
  8
BACKGROUND
100
AcDbLine
 10
41.37647042594513
 20
12.46925078657181
 30
0.0
 11
42.27129997780493
 21
11.39200537246292
 31
0.0
  0
LINE
  5
23C7
330
2
100
AcDbEntity
  8
BACKGROUND
100
AcDbLine
 10
40.62461879900117
 20
14.56808625572568
 30
0.0
 11
41.37647042594513
 21
12.46925078657181
 31
0.0
  0
LINE
  5
23C8
330
2
100
AcDbEntity
  8
BACKGROUND
100
AcDbLine
 10
40.21862265244364
 20
16.09956216553667
 30
0.0
 11
40.62461879900117
 21
14.56808625572568
 31
0.0
  0
LINE
  5
23C9
330
2
100
AcDbEntity
  8
Rough_In
100
AcDbLine
 10
34.76183890403742
 20
12.34752623375365
 30
0.0
 11
27.92608846465164
 21
12.34752623375365
 31
0.0
  0
LINE
  5
23E3
330
2
100
AcDbEntity
  8
OBJECT
100
AcDbLine
 10
38.16522127126227
 20
14.09455716553667
 30
0.0
 11
38.16522127126227
 21
14.59455716553667
 31
0.0
  0
LINE
  5
23E4
330
2
100
AcDbEntity
  8
OBJECT
100
AcDbLine
 10
38.29270827126227
 20
14.09455716553667
 30
0.0
 11
38.29270827126227
 21
13.86750900064831
 31
0.0
  0
LINE
  5
23E6
330
2
100
AcDbEntity
  8
OBJECT
100
AcDbLine
 10
38.16522127126227
 20
14.59455716553667
 30
0.0
 11
37.66522127126227
 21
14.59455716553667
 31
0.0
  0
LINE
  5
23E7
330
2
100
AcDbEntity
  8
OBJECT
100
AcDbLine
 10
38.97147526709089
 20
14.09455716553667
 30
0.0
 11
38.16522127126227
 21
14.09455716553667
 31
0.0
  0
ARC
  5
23E9
330
2
100
AcDbEntity
  8
OBJECT
100
AcDbCircle
 10
38.88973827126229
 20
15.40231916553667
 30
0.0
 40
0.250387
100
AcDbArc
 50
70.94668798536351
 51
176.6742399999999
  0
LINE
  5
23EA
330
2
100
AcDbEntity
  8
BACKGROUND
100
AcDbLine
 10
39.98020827126227
 20
15.97456216553667
 30
0.0
 11
39.97148027126228
 21
15.97456216553667
 31
0.0
  0
LINE
  5
2402
330
2
100
AcDbEntity
  8
OBJECT
100
AcDbLine
 10
37.66522127126227
 20
14.59455716553667
 30
0.0
 11
37.66522127126227
 21
15.97456216553667
 31
0.0
  0
LINE
  5
2403
330
2
100
AcDbEntity
  8
OBJECT
100
AcDbLine
 10
38.16522127126227
 20
14.59455716553667
 30
0.0
 11
38.16522127126227
 21
15.97456216553667
 31
0.0
  0
POLYLINE
  5
2404
330
2
100
AcDbEntity
  8
OBJECT
100
AcDb3dPolyline
 66
     1
 10
0.0
 20
0.0
 30
0.0
 70
     8
  0
VERTEX
  5
2405
330
2404
100
AcDbEntity
  8
OBJECT
100
AcDbVertex
100
AcDb3dPolylineVertex
 10
38.63976927126227
 20
15.41684516553667
 30
0.0
 70
    32
  0
VERTEX
  5
2406
330
2404
100
AcDbEntity
  8
OBJECT
100
AcDbVertex
100
AcDb3dPolylineVertex
 10
38.63976927126227
 20
15.41684516553667
 30
0.0
 70
    32
  0
VERTEX
  5
2407
330
2404
100
AcDbEntity
  8
OBJECT
100
AcDbVertex
100
AcDb3dPolylineVertex
 10
38.61811727126228
 20
15.36851316553667
 30
0.0
 70
    32
  0
VERTEX
  5
2408
330
2404
100
AcDbEntity
  8
OBJECT
100
AcDbVertex
100
AcDb3dPolylineVertex
 10
38.59669327126228
 20
15.32008216553667
 30
0.0
 70
    32
  0
VERTEX
  5
2409
330
2404
100
AcDbEntity
  8
OBJECT
100
AcDbVertex
100
AcDb3dPolylineVertex
 10
38.57531627126228
 20
15.27163516553667
 30
0.0
 70
    32
  0
VERTEX
  5
240A
330
2404
100
AcDbEntity
  8
OBJECT
100
AcDbVertex
100
AcDb3dPolylineVertex
 10
38.55378627126227
 20
15.22325716553667
 30
0.0
 70
    32
  0
VERTEX
  5
240B
330
2404
100
AcDbEntity
  8
OBJECT
100
AcDbVertex
100
AcDb3dPolylineVertex
 10
38.53190527126226
 20
15.17502416553668
 30
0.0
 70
    32
  0
VERTEX
  5
240C
330
2404
100
AcDbEntity
  8
OBJECT
100
AcDbVertex
100
AcDb3dPolylineVertex
 10
38.50948927126227
 20
15.12702016553667
 30
0.0
 70
    32
  0
VERTEX
  5
240D
330
2404
100
AcDbEntity
  8
OBJECT
100
AcDbVertex
100
AcDb3dPolylineVertex
 10
38.48631127126227
 20
15.07933616553668
 30
0.0
 70
    32
  0
VERTEX
  5
240E
330
2404
100
AcDbEntity
  8
OBJECT
100
AcDbVertex
100
AcDb3dPolylineVertex
 10
38.46223327126227
 20
15.03207216553668
 30
0.0
 70
    32
  0
VERTEX
  5
240F
330
2404
100
AcDbEntity
  8
OBJECT
100
AcDbVertex
100
AcDb3dPolylineVertex
 10
38.43720927126226
 20
14.98528916553667
 30
0.0
 70
    32
  0
VERTEX
  5
2410
330
2404
100
AcDbEntity
  8
OBJECT
100
AcDbVertex
100
AcDb3dPolylineVertex
 10
38.41119227126227
 20
14.93907016553667
 30
0.0
 70
    32
  0
VERTEX
  5
2411
330
2404
100
AcDbEntity
  8
OBJECT
100
AcDbVertex
100
AcDb3dPolylineVertex
 10
38.38407727126226
 20
14.89352216553667
 30
0.0
 70
    32
  0
VERTEX
  5
2412
330
2404
100
AcDbEntity
  8
OBJECT
100
AcDbVertex
100
AcDb3dPolylineVertex
 10
38.35574227126229
 20
14.84877616553667
 30
0.0
 70
    32
  0
VERTEX
  5
2413
330
2404
100
AcDbEntity
  8
OBJECT
100
AcDbVertex
100
AcDb3dPolylineVertex
 10
38.32604827126228
 20
14.80495316553668
 30
0.0
 70
    32
  0
VERTEX
  5
2414
330
2404
100
AcDbEntity
  8
OBJECT
100
AcDbVertex
100
AcDb3dPolylineVertex
 10
38.29496627126228
 20
14.76210616553667
 30
0.0
 70
    32
  0
VERTEX
  5
2415
330
2404
100
AcDbEntity
  8
OBJECT
100
AcDbVertex
100
AcDb3dPolylineVertex
 10
38.26292327126227
 20
14.71994616553667
 30
0.0
 70
    32
  0
VERTEX
  5
2416
330
2404
100
AcDbEntity
  8
OBJECT
100
AcDbVertex
100
AcDb3dPolylineVertex
 10
38.23033027126228
 20
14.67816716553667
 30
0.0
 70
    32
  0
VERTEX
  5
2417
330
2404
100
AcDbEntity
  8
OBJECT
100
AcDbVertex
100
AcDb3dPolylineVertex
 10
38.19761527126228
 20
14.63647316553667
 30
0.0
 70
    32
  0
VERTEX
  5
2418
330
2404
100
AcDbEntity
  8
OBJECT
100
AcDbVertex
100
AcDb3dPolylineVertex
 10
38.16522127126227
 20
14.59455716553667
 30
0.0
 70
    32
  0
SEQEND
  5
2419
330
2404
100
AcDbEntity
  8
OBJECT
  0
LINE
  5
241B
330
2
100
AcDbEntity
  8
OBJECT
100
AcDbLine
 10
34.44147427126227
 20
18.86846923375365
 30
0.0
 11
34.58847727126228
 21
18.86846923375365
 31
0.0
  0
LINE
  5
241C
330
2
100
AcDbEntity
  8
0
100
AcDbLine
 10
34.42147727126228
 20
19.11347923375365
 30
0.0
 11
34.42147727126228
 21
18.88847323375365
 31
0.0
  0
ARC
  5
241D
330
2
100
AcDbEntity
  8
0
100
AcDbCircle
 10
34.44147427126227
 20
18.88847323375365
 30
0.0
 40
0.02
100
AcDbArc
 50
180.0
 51
270.0
  0
ARC
  5
241E
330
2
100
AcDbEntity
  8
OBJECT
100
AcDbCircle
 10
-34.58847727126228
 20
18.84846523375365
 30
0.0
 40
0.02
210
0.0
220
0.0
230
-1.0
100
AcDbArc
 50
90.0
 51
180.0
  0
LINE
  5
241F
330
2
100
AcDbEntity
  8
OBJECT
100
AcDbLine
 10
34.60847427126227
 20
18.84846523375365
 30
0.0
 11
34.60847427126227
 21
18.66847223375366
 31
0.0
  0
LINE
  5
2420
330
2
100
AcDbEntity
  8
OBJECT
100
AcDbLine
 10
34.60847427126227
 20
18.66002623375365
 30
0.0
 11
35.34352984253577
 21
18.66002623375365
 31
0.0
  0
LINE
  5
2421
330
2
100
AcDbEntity
  8
OBJECT
100
AcDbLine
 10
34.60847427126227
 20
17.52847323375365
 30
0.0
 11
34.60847427126227
 21
17.34846523375365
 31
0.0
  0
LINE
  5
2422
330
2
100
AcDbEntity
  8
0
100
AcDbLine
 10
34.42147727126228
 20
17.30847123375365
 30
0.0
 11
34.42147727126228
 21
17.08346523375365
 31
0.0
  0
LINE
  5
2423
330
2
100
AcDbEntity
  8
OBJECT
100
AcDbLine
 10
34.44147427126227
 20
17.32847623375365
 30
0.0
 11
34.58847727126228
 21
17.32847623375365
 31
0.0
  0
ARC
  5
2424
330
2
100
AcDbEntity
  8
OBJECT
100
AcDbCircle
 10
34.58847727126228
 20
17.34846523375365
 30
0.0
 40
0.02
100
AcDbArc
 50
270.0
 51
0.0
  0
ARC
  5
2425
330
2
100
AcDbEntity
  8
0
100
AcDbCircle
 10
34.44147427126227
 20
17.30847123375365
 30
0.0
 40
0.02
100
AcDbArc
 50
90.0
 51
180.0
  0
ARC
  5
2426
330
2
100
AcDbEntity
  8
0
100
AcDbCircle
 10
-34.40148127126226
 20
17.08346523375365
 30
0.0
 40
0.02
210
0.0
220
0.0
230
-1.0
100
AcDbArc
 50
180.0
 51
270.0
  0
LINE
  5
2427
330
2
100
AcDbEntity
  8
OBJECT
100
AcDbLine
 10
34.60847427126227
 20
17.53502623375365
 30
0.0
 11
34.78913327151453
 21
17.53502623375365
 31
0.0
  0
LINE
  5
2428
330
2
100
AcDbEntity
  8
OBJECT
100
AcDbLine
 10
34.60847427126227
 20
18.66847223375366
 30
0.0
 11
34.60847427126227
 21
17.52847323375365
 31
0.0
  0
LINE
  5
2429
330
2
100
AcDbEntity
  8
0
100
AcDbLine
 10
34.42147727126228
 20
18.88847323375365
 30
0.0
 11
34.42147727126228
 21
17.30847123375365
 31
0.0
  0
ARC
  5
242A
330
2
100
AcDbEntity
  8
0
100
AcDbCircle
 10
34.40148127126226
 20
19.11347923375365
 30
0.0
 40
0.02
100
AcDbArc
 50
0.0
 51
90.0
  0
LINE
  5
242B
330
2
100
AcDbEntity
  8
0
100
AcDbLine
 10
33.47148027126228
 20
19.13346823375365
 30
0.0
 11
33.47148027126228
 21
17.06347623375365
 31
0.0
  0
LINE
  5
242C
330
2
100
AcDbEntity
  8
0
100
AcDbLine
 10
33.47148027126228
 20
19.13346823375365
 30
0.0
 11
34.40148127126226
 21
19.13346823375365
 31
0.0
  0
LINE
  5
242D
330
2
100
AcDbEntity
  8
0
100
AcDbLine
 10
33.47148027126228
 20
17.06347623375365
 30
0.0
 11
34.40148127126226
 21
17.06347623375365
 31
0.0
  0
LINE
  5
242E
330
2
100
AcDbEntity
  8
Rough_In
100
AcDbLine
 10
31.67286427126227
 20
18.09752623375365
 30
0.0
 11
33.881718730673
 21
18.09752623375365
 31
0.0
  0
LINE
  5
242F
330
2
100
AcDbEntity
  8
0
100
AcDbLine
 10
39.97148027126228
 20
16.09956216553667
 30
0.0
 11
57.72148027126227
 21
16.09956216553667
 31
0.0
  0
LINE
  5
2432
330
2
100
AcDbEntity
  8
OBJECT
100
AcDbLine
 10
39.97148027126228
 20
7.474562165536671
 30
0.0
 11
39.97148027126228
 21
16.09956216553667
 31
0.0
  0
LINE
  5
2452
330
2
100
AcDbEntity
  8
OBJECT
100
AcDbLine
 10
39.97148027126228
 20
20.09956216553667
 30
0.0
 11
38.97148027126228
 21
20.09956216553667
 31
0.0
  0
LINE
  5
2453
330
2
100
AcDbEntity
  8
OBJECT
100
AcDbLine
 10
38.97148027126228
 20
20.09956216553667
 30
0.0
 11
38.97146527126228
 21
2.099564165536676
 31
0.0
  0
LINE
  5
2455
330
2
100
AcDbEntity
  8
OBJECT
100
AcDbLine
 10
38.97146527126228
 20
2.599564165536676
 30
0.0
 11
38.97146527126228
 21
2.099564165536676
 31
0.0
  0
LINE
  5
2456
330
2
100
AcDbEntity
  8
OBJECT
100
AcDbLine
 10
38.97146527126228
 20
2.099564165536676
 30
0.0
 11
39.97146527126228
 21
2.099564165536676
 31
0.0
  0
LINE
  5
2457
330
2
100
AcDbEntity
  8
OBJECT
100
AcDbLine
 10
39.97148027126228
 20
20.09956216553667
 30
0.0
 11
39.97146527126228
 21
2.099564165536676
 31
0.0
  0
ARC
  5
245A
330
2
100
AcDbEntity
  8
OBJECT
100
AcDbCircle
 10
8.599099271262272
 20
42.48957716553663
 30
0.0
 40
1.924533999999999
100
AcDbArc
 50
213.0919489999999
 51
326.9079899999997
  0
CIRCLE
  5
245B
330
2
100
AcDbEntity
  8
OBJECT
100
AcDbCircle
 10
8.599099271262275
 20
49.93415716553666
 30
0.0
 40
1.5
  0
ARC
  5
245C
330
2
100
AcDbEntity
  8
OBJECT
100
AcDbCircle
 10
16.53659927126227
 20
49.93415716553666
 30
0.0
 40
14.9375
100
AcDbArc
 50
179.999978
 51
223.3766400000001
  0
POLYLINE
  5
245D
330
2
100
AcDbEntity
  8
OBJECT
100
AcDb3dPolyline
 66
     1
 10
0.0
 20
0.0
 30
0.0
 70
     8
  0
VERTEX
  5
245E
330
245D
100
AcDbEntity
  8
OBJECT
100
AcDbVertex
100
AcDb3dPolylineVertex
 10
6.986733271262277
 20
41.43882616553663
 30
0.0
 70
    32
  0
VERTEX
  5
245F
330
245D
100
AcDbEntity
  8
OBJECT
100
AcDbVertex
100
AcDb3dPolylineVertex
 10
6.593087271262273
 20
42.07581916553666
 30
0.0
 70
    32
  0
VERTEX
  5
2460
330
245D
100
AcDbEntity
  8
OBJECT
100
AcDbVertex
100
AcDb3dPolylineVertex
 10
6.230568271262267
 20
42.73103216553666
 30
0.0
 70
    32
  0
VERTEX
  5
2461
330
245D
100
AcDbEntity
  8
OBJECT
100
AcDbVertex
100
AcDb3dPolylineVertex
 10
5.900002271262277
 20
43.40293716553664
 30
0.0
 70
    32
  0
VERTEX
  5
2462
330
245D
100
AcDbEntity
  8
OBJECT
100
AcDbVertex
100
AcDb3dPolylineVertex
 10
5.602120271262275
 20
44.08998016553666
 30
0.0
 70
    32
  0
VERTEX
  5
2463
330
245D
100
AcDbEntity
  8
OBJECT
100
AcDbVertex
100
AcDb3dPolylineVertex
 10
5.337655271262274
 20
44.79054116553665
 30
0.0
 70
    32
  0
VERTEX
  5
2464
330
245D
100
AcDbEntity
  8
OBJECT
100
AcDbVertex
100
AcDb3dPolylineVertex
 10
5.107186271262275
 20
45.50300516553663
 30
0.0
 70
    32
  0
VERTEX
  5
2465
330
245D
100
AcDbEntity
  8
OBJECT
100
AcDbVertex
100
AcDb3dPolylineVertex
 10
4.911263271262281
 20
46.22575216553663
 30
0.0
 70
    32
  0
VERTEX
  5
2466
330
245D
100
AcDbEntity
  8
OBJECT
100
AcDbVertex
100
AcDb3dPolylineVertex
 10
4.750344271262274
 20
46.95707616553663
 30
0.0
 70
    32
  0
VERTEX
  5
2467
330
245D
100
AcDbEntity
  8
OBJECT
100
AcDbVertex
100
AcDb3dPolylineVertex
 10
4.624795271262268
 20
47.69529616553664
 30
0.0
 70
    32
  0
VERTEX
  5
2468
330
245D
100
AcDbEntity
  8
OBJECT
100
AcDbVertex
100
AcDb3dPolylineVertex
 10
4.534920271262279
 20
48.43870416553663
 30
0.0
 70
    32
  0
VERTEX
  5
2469
330
245D
100
AcDbEntity
  8
OBJECT
100
AcDbVertex
100
AcDb3dPolylineVertex
 10
4.480904271262275
 20
49.18556116553664
 30
0.0
 70
    32
  0
VERTEX
  5
246A
330
245D
100
AcDbEntity
  8
OBJECT
100
AcDbVertex
100
AcDb3dPolylineVertex
 10
4.462899271262273
 20
49.93415716553666
 30
0.0
 70
    32
  0
SEQEND
  5
246B
330
245D
100
AcDbEntity
  8
OBJECT
  0
LINE
  5
246C
330
2
100
AcDbEntity
  8
OBJECT
100
AcDbLine
 10
4.871102271262273
 20
56.18418716553664
 30
0.0
 11
4.871102271262273
 21
55.85887016553666
 31
0.0
  0
LINE
  5
246D
330
2
100
AcDbEntity
  8
OBJECT
100
AcDbLine
 10
4.871102271262273
 20
56.18418716553664
 30
0.0
 11
4.871102271262273
 21
55.85887016553666
 31
0.0
  0
LINE
  5
246E
330
2
100
AcDbEntity
  8
OBJECT
100
AcDbLine
 10
2.599190271262273
 20
56.18417216553665
 30
0.0
 11
2.599190271262273
 21
57.18415716553666
 31
0.0
  0
LINE
  5
246F
330
2
100
AcDbEntity
  8
OBJECT
100
AcDbLine
 10
8.036690271262273
 20
57.18415716553666
 30
0.0
 11
8.036690271262273
 21
58.74665716553666
 31
0.0
  0
LINE
  5
2470
330
2
100
AcDbEntity
  8
OBJECT
100
AcDbLine
 10
9.161690271262273
 20
57.18415716553666
 30
0.0
 11
9.161690271262273
 21
58.74665716553666
 31
0.0
  0
ARC
  5
2471
330
2
100
AcDbEntity
  8
BACKGROUND
100
AcDbCircle
 10
8.599190271262273
 20
61.8795563780165
 30
0.0
 40
0.7915700512521084
100
AcDbArc
 50
224.7151841913588
 51
315.2848158086412
  0
LINE
  5
2472
330
2
100
AcDbEntity
  8
OBJECT
100
AcDbLine
 10
8.036690271262273
 20
60.37167216553665
 30
0.0
 11
8.036690271262273
 21
61.54717066553665
 31
0.0
  0
LINE
  5
2473
330
2
100
AcDbEntity
  8
OBJECT
100
AcDbLine
 10
9.161690271262273
 20
60.37167216553665
 30
0.0
 11
9.161690271262273
 21
61.54717066553665
 31
0.0
  0
ARC
  5
2474
330
2
100
AcDbEntity
  8
BACKGROUND
100
AcDbCircle
 10
8.599190271262273
 20
56.90076921402796
 30
0.0
 40
0.927822944650993
100
AcDbArc
 50
52.68058538834234
 51
127.3194146116576
  0
LINE
  5
2475
330
2
100
AcDbEntity
  8
OBJECT
100
AcDbLine
 10
8.036690271262273
 20
58.74665716553666
 30
0.0
 11
8.036690271262273
 21
60.37167216553665
 31
0.0
  0
LINE
  5
2476
330
2
100
AcDbEntity
  8
OBJECT
100
AcDbLine
 10
9.161690271262273
 20
58.74665716553666
 30
0.0
 11
9.161690271262273
 21
60.37167216553665
 31
0.0
  0
LINE
  5
2477
330
2
100
AcDbEntity
  8
OBJECT
100
AcDbLine
 10
10.09931227126227
 20
57.18415716553666
 30
0.0
 11
10.09931227126227
 21
66.68415716553663
 31
0.0
  0
LINE
  5
2478
330
2
100
AcDbEntity
  8
OBJECT
100
AcDbLine
 10
7.099312271262277
 20
57.18415716553666
 30
0.0
 11
7.099312271262277
 21
66.68415716553664
 31
0.0
  0
LINE
  5
2479
330
2
100
AcDbEntity
  8
OBJECT
100
AcDbLine
 10
7.099312271262277
 20
66.68415716553664
 30
0.0
 11
10.09931227126227
 21
66.68415716553663
 31
0.0
  0
ARC
  5
247A
330
2
100
AcDbEntity
  8
OBJECT
100
AcDbCircle
 10
8.599099271262275
 20
49.93415716553666
 30
0.0
 40
7.0
100
AcDbArc
 50
122.1793520000001
 51
179.999969
  0
ARC
  5
247B
330
2
100
AcDbEntity
  8
OBJECT
100
AcDbCircle
 10
0.6615992712622756
 20
49.93418716553664
 30
0.0
 40
14.9375
100
AcDbArc
 50
316.6233059999999
 51
359.999962
  0
LINE
  5
247C
330
2
100
AcDbEntity
  8
OBJECT
100
AcDbLine
 10
12.32709627126228
 20
56.18415716553666
 30
0.0
 11
12.32709627126228
 21
55.85887016553666
 31
0.0
  0
LINE
  5
247D
330
2
100
AcDbEntity
  8
OBJECT
100
AcDbLine
 10
14.59919027126227
 20
56.18417216553665
 30
0.0
 11
14.59919027126227
 21
57.18415716553666
 31
0.0
  0
ARC
  5
247E
330
2
100
AcDbEntity
  8
OBJECT
100
AcDbCircle
 10
8.599099271262275
 20
49.93415716553666
 30
0.0
 40
7.0
100
AcDbArc
 50
359.9999389999999
 51
57.82058699999994
  0
ARC
  5
247F
330
2
100
AcDbEntity
  8
OBJECT
100
AcDbCircle
 10
8.599099271262272
 20
42.48957716553663
 30
0.0
 40
4.055412
100
AcDbArc
 50
223.9456480000002
 51
316.0542300000001
  0
ARC
  5
2480
330
2
100
AcDbEntity
  8
OBJECT
100
AcDbCircle
 10
-2.824423728737727
 20
49.93418716553664
 30
0.0
 40
15.559746
100
AcDbArc
 50
326.9080959999997
 51
359.999962
  0
LINE
  5
2481
330
2
100
AcDbEntity
  8
OBJECT
100
AcDbLine
 10
12.32709627126228
 20
56.18415716553666
 30
0.0
 11
4.87128527126228
 21
56.18418716553664
 31
0.0
  0
LINE
  5
2482
330
2
100
AcDbEntity
  8
OBJECT
100
AcDbLine
 10
2.599190271262273
 20
56.18415716553666
 30
0.0
 11
14.59919027126227
 21
56.18415716553666
 31
0.0
  0
ARC
  5
2483
330
2
100
AcDbEntity
  8
OBJECT
100
AcDbCircle
 10
8.599099271262275
 20
49.93415716553666
 30
0.0
 40
4.135666999999999
100
AcDbArc
 50
359.9998780000002
 51
179.999969
  0
LINE
  5
2484
330
2
100
AcDbEntity
  8
OBJECT
100
AcDbLine
 10
2.599190271262273
 20
57.18415716553666
 30
0.0
 11
14.59919027126227
 21
57.18415716553666
 31
0.0
  0
LINE
  5
29CB
330
2
100
AcDbEntity
  8
OBJECT
100
AcDbLine
 10
1.599099271262275
 20
16.13682346092716
 30
0.0
 11
15.59909927126227
 21
16.13682346092716
 31
0.0
  0
ARC
  5
29CC
330
2
100
AcDbEntity
  8
OBJECT
100
AcDbCircle
 10
8.599112191950979
 20
12.99810911559741
 30
0.0
 40
4.583748495740795
100
AcDbArc
 50
244.130241248071
 51
295.8697587519299
  0
LINE
  5
29CD
330
2
100
AcDbEntity
  8
OBJECT
100
AcDbLine
 10
7.099099271262275
 20
5.137875307081017
 30
0.0
 11
7.099099271262275
 21
8.66674541463983
 31
0.0
  0
LINE
  5
29CE
330
2
100
AcDbEntity
  8
OBJECT
100
AcDbLine
 10
10.09909927126227
 20
5.137875307081017
 30
0.0
 11
10.09909927126227
 21
8.666736465489233
 31
0.0
  0
ARC
  5
29CF
330
2
100
AcDbEntity
  8
OBJECT
100
AcDbCircle
 10
8.599099271262275
 20
5.137875307081017
 30
0.0
 40
1.5
100
AcDbArc
 50
180.0
 51
0.0
  0
SPLINE
  5
29D0
330
2
100
AcDbEntity
  8
OBJECT
100
AcDbSpline
210
0.0
220
0.0
230
1.0
 70
     8
 71
     3
 72
    11
 73
     7
 74
     5
 42
0.0000000001
 43
0.0000000001
 44
0.0000000001
 40
0.0
 40
0.0
 40
0.0
 40
0.0
 40
1.56642904344183
 40
4.243076763884296
 40
6.32298058070153
 40
8.317681008104804
 40
8.317681008104804
 40
8.317681008104804
 40
8.317681008104804
 10
1.599099271262275
 20
14.84689046092719
 30
0.0
 10
1.598142336063688
 20
14.31584912449806
 30
0.0
 10
1.595550230457202
 20
12.87738680493231
 30
0.0
 10
2.966105185978687
 20
11.07842950341587
 30
0.0
 10
4.745652051857858
 20
9.708682499564606
 30
0.0
 10
5.989956682326166
 20
9.148124453362074
 30
0.0
 10
6.599099271262389
 20
8.873706299517923
 30
0.0
 11
1.599099271262275
 21
14.84689046092719
 31
0.0
 11
1.721929094332722
 21
13.28528462631252
 31
0.0
 11
3.165990541961036
 21
11.03159219946642
 31
0.0
 11
4.812481959637011
 21
9.760739769508379
 31
0.0
 11
6.599099271262389
 21
8.873706299517923
 31
0.0
  0
LINE
  5
29D1
330
2
100
AcDbEntity
  8
0
100
AcDbLine
 10
1.599099271262275
 20
16.13682346092716
 30
0.0
 11
1.599099271262275
 21
14.8468904609272
 31
0.0
  0
SPLINE
  5
29D2
330
2
100
AcDbEntity
  8
OBJECT
100
AcDbSpline
210
0.0
220
0.0
230
1.0
 70
     8
 71
     3
 72
    11
 73
     7
 74
     5
 42
0.0000000001
 43
0.0000000001
 44
0.0000000001
 40
0.0
 40
0.0
 40
0.0
 40
0.0
 40
1.56642904344183
 40
4.243076763884296
 40
6.32298058070153
 40
8.317681008104804
 40
8.317681008104804
 40
8.317681008104804
 40
8.317681008104804
 10
15.59912511263974
 20
14.84689046092719
 30
0.0
 10
15.60008204783833
 20
14.31584912449806
 30
0.0
 10
15.60267415344481
 20
12.87738680493231
 30
0.0
 10
14.23211919792333
 20
11.07842950341587
 30
0.0
 10
12.45257233204415
 20
9.708682499564606
 30
0.0
 10
11.20826770157585
 20
9.148124453362074
 30
0.0
 10
10.59912511263962
 20
8.873706299517923
 30
0.0
 11
15.59912511263974
 21
14.84689046092719
 31
0.0
 11
15.47629528956929
 21
13.28528462631252
 31
0.0
 11
14.03223384194098
 21
11.03159219946642
 31
0.0
 11
12.385742424265
 21
9.760739769508379
 31
0.0
 11
10.59912511263962
 21
8.873706299517923
 31
0.0
  0
LINE
  5
29D3
330
2
100
AcDbEntity
  8
0
100
AcDbLine
 10
15.59909927126227
 20
16.13682346092716
 30
0.0
 11
15.59909927126227
 21
14.84689046092714
 31
0.0
  0
LINE
  5
29D7
330
2
100
AcDbEntity
  8
OBJECT
100
AcDbLine
 10
14.5990992712623
 20
16.13682346092716
 30
0.0
 11
14.59909927126227
 21
20.09956216553667
 31
0.0
  0
LINE
  5
29D8
330
2
100
AcDbEntity
  8
OBJECT
100
AcDbLine
 10
2.599099271262304
 20
16.13682346092716
 30
0.0
 11
2.599099271262275
 21
20.09956216553667
 31
0.0
  0
LINE
  5
29D9
330
2
100
AcDbEntity
  8
OBJECT
100
AcDbLine
 10
14.59909927126227
 20
2.099564165536676
 30
0.0
 11
14.59909927126227
 21
11.64879049115066
 31
0.0
  0
LINE
  5
29DA
330
2
100
AcDbEntity
  8
OBJECT
100
AcDbLine
 10
2.599099271262282
 20
2.099564165536676
 30
0.0
 11
2.599099271262275
 21
11.64882214326119
 31
0.0
  0
LINE
  5
29DC
330
2
100
AcDbEntity
  8
OBJECT
100
AcDbLine
 10
2.599099271262275
 20
20.09956216553667
 30
0.0
 11
14.59909927126227
 21
20.09956216553667
 31
0.0
  0
ARC
  5
2A12
330
2
100
AcDbEntity
  8
OBJECT
100
AcDbCircle
 10
43.02383170658107
 20
8.820562165536681
 30
0.0
 40
5.0
100
AcDbArc
 50
232.3763007130045
 51
0.0
  0
LINE
  5
2A13
330
2
100
AcDbEntity
  8
OBJECT
100
AcDbLine
 10
38.9714768337619
 20
15.97456216553666
 30
0.0
 11
37.66522127126227
 21
15.97456216553667
 31
0.0
  0
LINE
  5
2A14
330
2
100
AcDbEntity
  8
OBJECT
100
AcDbLine
 10
2.599099271262282
 20
2.099564165536676
 30
0.0
 11
14.59909927126227
 21
2.099564165536676
 31
0.0
  0
MTEXT
  5
2A1E
330
2
100
AcDbEntity
  8
OBJECT
100
AcDbMText
 10
31.01397493222419
 20
40.48744309611808
 30
0.0
 40
2.0
 41
19.36937689407216
 71
     1
 72
     5
  1
4105 TOILET
 73
     1
 44
1.0
1001
ACAD
1000
MTEXTBEGIN
1070
    73
1070
     1
1070
    44
1040
1.0
1070
    74
1070
     0
1000
MTEXTEND
  0
LINE
  5
2A56
330
2
100
AcDbEntity
  8
Rough_In
100
AcDbLine
 10
38.97146443792718
 20
1.099562165536667
 30
0.0
 11
57.72148027126227
 21
1.099562165536667
 31
0.0
  0
MTEXT
  5
2A60
330
2
100
AcDbEntity
  8
Rough_In
100
AcDbMText
 10
39.511669800096
 20
0.9585336569485747
 30
0.0
 40
1.0
 41
19.36937689407216
 71
     1
 72
     5
  1
FLOOR
 73
     1
 44
1.0
1001
ACAD
1000
MTEXTBEGIN
1070
    73
1070
     1
1070
    44
1040
1.0
1070
    74
1070
     0
1000
MTEXTEND
  0
ENDSEC
  0
SECTION
  2
OBJECTS
  0
DICTIONARY
  5
364
330
0
100
AcDbDictionary
281
     1
  3
ACAD_COLOR
350
1BC0
  3
ACAD_GROUP
350
362
  3
ACAD_LAYOUT
350
5B7
  3
ACAD_MATERIAL
350
1BBF
  3
ACAD_MLINESTYLE
350
363
  3
ACAD_PLOTSETTINGS
350
5B8
  3
ACAD_PLOTSTYLENAME
350
5B5
  3
ACAD_TABLESTYLE
350
2A4A
  3
ACAD_VISUALSTYLE
350
2A39
  3
AcadDim
350
1837
  3
AcDbVariableDictionary
350
5BF
  3
BNS_SELSET
350
36A
  3
DWGPROPS
350
2B29
  0
DICTIONARY
  5
2AEE
330
35D
100
AcDbDictionary
280
     1
281
     1
  0
DICTIONARY
  5
2B08
330
356
100
AcDbDictionary
280
     1
281
     1
  3
ACAD_LAYERFILTERS
360
2B0C
  3
ACLYDICTIONARY
360
2B0B
  0
DICTIONARY
  5
2A57
330
2
100
AcDbDictionary
280
     1
281
     1
  3
ACAD_SORTENTS
360
2A58
  0
DICTIONARY
  5
1BC0
102
{ACAD_REACTORS
330
364
102
}
330
364
100
AcDbDictionary
281
     1
  0
DICTIONARY
  5
362
102
{ACAD_REACTORS
330
364
102
}
330
364
100
AcDbDictionary
281
     1
  3
UR
350
1971
  0
DICTIONARY
  5
5B7
102
{ACAD_REACTORS
330
364
102
}
330
364
100
AcDbDictionary
281
     1
  3
Layout1
350
5BA
  3
Model
350
5B9
  0
DICTIONARY
  5
1BBF
102
{ACAD_REACTORS
330
364
102
}
330
364
100
AcDbDictionary
281
     1
  3
ByBlock
350
2A37
  3
ByLayer
350
2A36
  3
Global
350
2A38
  0
DICTIONARY
  5
363
102
{ACAD_REACTORS
330
364
102
}
330
364
100
AcDbDictionary
281
     1
  3
STANDARD
350
365
  0
DICTIONARY
  5
5B8
102
{ACAD_REACTORS
330
364
102
}
330
364
100
AcDbDictionary
281
     1
  0
ACDBDICTIONARYWDFLT
  5
5B5
102
{ACAD_REACTORS
330
364
102
}
330
364
100
AcDbDictionary
281
     1
  3
Normal
350
5B6
100
AcDbDictionaryWithDefault
340
5B6
  0
DICTIONARY
  5
2A4A
102
{ACAD_REACTORS
330
364
102
}
330
364
100
AcDbDictionary
281
     1
  3
Standard
350
2A4B
  0
DICTIONARY
  5
2A39
102
{ACAD_REACTORS
330
364
102
}
330
364
100
AcDbDictionary
281
     1
  3
2dWireframe
350
2A3F
  3
3D Hidden
350
2A41
  3
3dWireframe
350
2A40
  3
Basic
350
2A3E
  3
Brighten
350
2A45
  3
ColorChange
350
2A49
  3
Conceptual
350
2A42
  3
Dim
350
2A44
  3
Facepattern
350
2A48
  3
Flat
350
2A3A
  3
FlatWithEdges
350
2A3B
  3
Gouraud
350
2A3C
  3
GouraudWithEdges
350
2A3D
  3
Linepattern
350
2A47
  3
Realistic
350
2A43
  3
Thicken
350
2A46
  0
XRECORD
  5
1837
102
{ACAD_REACTORS
330
364
102
}
330
364
100
AcDbXrecord
280
     1
 90
   990106
  3

 60
     0
 61
     0
 62
     1
 63
     3
 64
     0
 65
     0
 66
     0
 67
     3
 68
     1
 69
     0
 70
     0
 71
     0
 72
     0
 40
0.5852506911801925
170
     0
340
183C
  0
DICTIONARY
  5
5BF
102
{ACAD_REACTORS
330
364
102
}
330
364
100
AcDbDictionary
281
     1
  3
CTABLESTYLE
350
2B00
  3
DIMASSOC
350
5C0
  3
INDEXCTL
350
2B02
  3
PROJECTNAME
350
1BCE
  3
SORTENTS
350
2B01
  0
DICTIONARY
  5
36A
102
{ACAD_REACTORS
330
364
102
}
330
364
100
AcDbDictionary
281
     1
  3
BNS_SS01
350
5A9
  3
BNS_SS02
350
5AA
  3
BNS_SS03
350
5AB
  3
BNS_SS04
350
5AC
  3
BNS_SS05
350
5AD
  3
BNS_SS06
350
5AE
  3
BNS_SS07
350
5AF
  3
BNS_SS08
350
5B0
  3
BNS_SS09
350
5B1
  3
BNS_SS10
350
5B2
  0
XRECORD
  5
2B29
102
{ACAD_REACTORS
330
364
102
}
330
364
100
AcDbXrecord
280
     1
  1
DWGPROPS COOKIE
  2

  3

  4

  6

  7

  8
RandD
  9

300
=
301
=
302
=
303
=
304
=
305
=
306
=
307
=
308
=
309
=
 40
0.0184165856481482
 41
2455376.652401505
 42
2456867.510099167
  1

 90
        0
  0
DICTIONARY
  5
2B0C
102
{ACAD_REACTORS
330
2B08
102
}
330
2B08
100
AcDbDictionary
281
     1
  0
DICTIONARY
  5
2B0B
102
{ACAD_REACTORS
330
2B08
102
}
330
2B08
100
AcDbDictionary
281
     1
1001
ACAD
1000
<All
  0
SORTENTSTABLE
  5
2A58
102
{ACAD_REACTORS
330
2A57
102
}
330
2A57
100
AcDbSortentsTable
330
2
331
241E
  5
241E
331
2475
  5
2476
331
2380
  5
2380
331
23C7
  5
23C7
331
2426
  5
2426
331
2388
  5
2388
331
247D
  5
247E
331
23E7
  5
23E7
331
242E
  5
242E
331
2390
  5
2390
331
2398
  5
2398
331
29CD
  5
29CE
331
2361
  5
2361
331
2456
  5
2457
331
2369
  5
2369
331
23B8
  5
23B8
331
246E
  5
246F
331
2476
  5
2477
331
23C8
  5
23C8
331
241F
  5
241F
331
2381
  5
2381
331
247E
  5
247F
331
2389
  5
2389
331
2427
  5
2427
331
242F
  5
242F
331
2391
  5
2391
331
2399
  5
2399
331
29CE
  5
29CF
331
2457
  5
245A
331
2362
  5
2362
331
23A9
  5
23A9
331
236A
  5
236A
331
23B9
  5
23B9
331
246F
  5
2470
331
2A1E
  5
2A56
331
2420
  5
2420
331
2477
  5
2478
331
2382
  5
2382
331
23C9
  5
23C9
331
2428
  5
2428
331
238A
  5
238A
331
247F
  5
2480
331
2392
  5
2392
331
239A
  5
239A
331
183C
  5
183C
331
23E9
  5
23E9
331
23AA
  5
23AA
331
29CF
  5
29D0
331
2363
  5
2363
331
236B
  5
236B
331
23B2
  5
23B2
331
29D7
  5
29D8
331
2A56
  5
2432
331
23BA
  5
23BA
331
23C2
  5
23C2
331
2470
  5
2471
331
2478
  5
2479
331
2421
  5
2421
331
2383
  5
2383
331
2429
  5
2429
331
238B
  5
238B
331
2480
  5
2481
331
2393
  5
2393
331
23EA
  5
23EA
331
235C
  5
235C
331
239B
  5
239B
331
29D0
  5
29D1
331
23AB
  5
23AB
331
2402
  5
2402
331
2364
  5
2364
331
29D8
  5
29D9
331
236C
  5
236C
331
2471
  5
2472
331
237C
  5
237C
331
23C3
  5
23C3
331
2422
  5
2422
331
2384
  5
2384
331
2479
  5
247A
331
23E3
  5
23E3
331
242A
  5
242A
331
238C
  5
238C
331
2481
  5
2482
331
2432
  5
2452
331
2394
  5
2394
331
239C
  5
239C
331
235D
  5
235D
331
2452
  5
2453
331
29D1
  5
29D2
331
23AC
  5
23AC
331
2403
  5
2403
331
2365
  5
2365
331
245A
  5
245B
331
29D9
  5
29DA
331
23B4
  5
23B4
331
23C4
  5
23C4
331
241B
  5
241B
331
237D
  5
237D
331
2472
  5
2473
331
247A
  5
247B
331
2423
  5
2423
331
2385
  5
2385
331
242B
  5
242B
331
2482
  5
2483
331
238D
  5
238D
331
23E4
  5
23E4
331
2395
  5
2395
331
2453
  5
2455
331
235E
  5
235E
331
239D
  5
239D
331
29D2
  5
29D3
331
23AD
  5
23AD
331
2404
  5
2404
331
2366
  5
2366
331
245B
  5
245C
331
23B5
  5
23B5
331
29DA
  5
29DC
331
236E
  5
236E
331
2A12
  5
2A13
331
241C
  5
241C
331
2473
  5
2474
331
237E
  5
237E
331
23C5
  5
23C5
331
2424
  5
2424
331
2386
  5
2386
331
247B
  5
247C
331
242C
  5
242C
331
238E
  5
238E
331
2483
  5
2484
331
2396
  5
2396
331
239E
  5
239E
331
29CB
  5
29CC
331
235F
  5
235F
331
3
  5
3
331
245C
  5
245D
331
2367
  5
2367
331
23AE
  5
23AE
331
29D3
  5
29D7
331
23B6
  5
23B6
331
2A13
  5
2A14
331
246C
  5
246D
331
23C6
  5
23C6
331
241D
  5
241D
331
8B1
  5
8B1
331
237F
  5
237F
331
2474
  5
2475
331
247C
  5
247D
331
2425
  5
2425
331
8C1
  5
8C1
331
2387
  5
2387
331
23E6
  5
23E6
331
242D
  5
242D
331
238F
  5
238F
331
2484
  5
29CB
331
2397
  5
2397
331
29CC
  5
29CD
331
2360
  5
2360
331
2455
  5
2456
331
2368
  5
2368
331
245D
  5
246C
331
23B7
  5
23B7
331
29DC
  5
2A12
331
2370
  5
2370
331
246D
  5
246E
331
2A14
  5
2A1E
  0
GROUP
  5
1971
102
{ACAD_REACTORS
330
362
102
}
330
362
100
AcDbGroup
300

 70
     0
 71
     1
  0
LAYOUT
  5
5BA
102
{ACAD_XDICTIONARY
360
2B2C
102
}
102
{ACAD_REACTORS
330
5B7
102
}
330
5B7
100
AcDbPlotSettings
  1

  2
HP LaserJet 4100 Series PCL
  4

  6

 40
0.0
 41
0.0
 42
0.0
 43
0.0
 44
0.0
 45
0.0
 46
0.0
 47
0.0
 48
0.0
 49
0.0
140
0.0
141
0.0
142
1.0
143
1.0
 70
   688
 72
     0
 73
     0
 74
     5
  7
monochrome.ctb
 75
    16
147
1.0
148
0.0
149
0.0
100
AcDbLayout
  1
Layout1
 70
     1
 71
     1
 10
0.0
 20
0.0
 11
12.0
 21
9.0
 12
0.0
 22
0.0
 32
0.0
 14
1.000000000000000E+20
 24
1.000000000000000E+20
 34
1.000000000000000E+20
 15
-1.000000000000000E+20
 25
-1.000000000000000E+20
 35
-1.000000000000000E+20
146
0.0
 13
0.0
 23
0.0
 33
0.0
 16
1.0
 26
0.0
 36
0.0
 17
0.0
 27
1.0
 37
0.0
 76
     0
330
353
  0
LAYOUT
  5
5B9
102
{ACAD_XDICTIONARY
360
2B2A
102
}
102
{ACAD_REACTORS
330
5B7
102
}
330
5B7
100
AcDbPlotSettings
  1

  2
Brother HL-2040 series
  4
Letter
  6

 40
7.143749713897705
 41
5.027085304260253
 42
7.14373779296875
 43
5.027069091796875
 44
215.8999938964844
 45
279.3999938964844
 46
0.0
 47
2.285999999999999
 48
0.0
 49
0.0
140
0.0
141
0.0
142
1.0
143
1.008779449377546
 70
 11956
 72
     0
 73
     1
 74
     1
  7
monochrome.ctb
 75
     0
147
0.991296958534431
148
345.487377648366
149
450.9397778281738
100
AcDbLayout
  1
Model
 70
     1
 71
     0
 10
0.0
 20
0.0
 11
12.0
 21
9.0
 12
0.0
 22
0.0
 32
0.0
 14
0.0
 24
0.0
 34
0.0
 15
0.0
 25
0.0
 35
0.0
146
0.0
 13
0.0
 23
0.0
 33
0.0
 16
1.0
 26
0.0
 36
0.0
 17
0.0
 27
1.0
 37
0.0
 76
     0
330
2
331
2A2C
  0
MATERIAL
  5
2A37
102
{ACAD_XDICTIONARY
360
2B30
102
}
102
{ACAD_REACTORS
330
1BBF
102
}
330
1BBF
100
AcDbMaterial
  1
ByBlock
  0
MATERIAL
  5
2A36
102
{ACAD_XDICTIONARY
360
2B2E
102
}
102
{ACAD_REACTORS
330
1BBF
102
}
330
1BBF
100
AcDbMaterial
  1
ByLayer
  0
MATERIAL
  5
2A38
102
{ACAD_XDICTIONARY
360
2B32
102
}
102
{ACAD_REACTORS
330
1BBF
102
}
330
1BBF
100
AcDbMaterial
  1
Global
  0
MLINESTYLE
  5
365
102
{ACAD_REACTORS
330
363
102
}
330
363
100
AcDbMlineStyle
  2
STANDARD
 70
     0
  3

 62
     0
 51
90.0
 52
90.0
 71
     2
 49
0.5
 62
   256
  6
BYLAYER
 49
-0.5
 62
   256
  6
BYLAYER
  0
ACDBPLACEHOLDER
  5
5B6
102
{ACAD_REACTORS
330
5B5
102
}
330
5B5
  0
TABLESTYLE
  5
2A4B
102
{ACAD_XDICTIONARY
360
2B34
102
}
102
{ACAD_REACTORS
330
2A4A
102
}
330
2A4A
100
AcDbTableStyle
  3
Standard
 70
     0
 71
     0
 40
0.06
 41
0.06
280
     0
281
     0
  7
STANDARD
140
0.18
170
     2
 62
     0
 63
     7
283
     0
274
    -2
284
     1
 64
     0
275
    -2
285
     1
 65
     0
276
    -2
286
     1
 66
     0
277
    -2
287
     1
 67
     0
278
    -2
288
     1
 68
     0
279
    -2
289
     1
 69
     0
  7
STANDARD
140
0.25
170
     5
 62
     0
 63
     7
283
     0
274
    -2
284
     1
 64
     0
275
    -2
285
     1
 65
     0
276
    -2
286
     1
 66
     0
277
    -2
287
     1
 67
     0
278
    -2
288
     1
 68
     0
279
    -2
289
     1
 69
     0
  7
STANDARD
140
0.18
170
     5
 62
     0
 63
     7
283
     0
274
    -2
284
     1
 64
     0
275
    -2
285
     1
 65
     0
276
    -2
286
     1
 66
     0
277
    -2
287
     1
 67
     0
278
    -2
288
     1
 68
     0
279
    -2
289
     1
 69
     0
  0
VISUALSTYLE
  5
2A3F
102
{ACAD_REACTORS
330
2A39
102
}
330
2A39
100
AcDbVisualStyle
  2
2dWireframe
 70
     4
 71
     0
 72
     2
 73
     0
 90
        0
 40
-0.6
 41
-30.0
 62
     5
 63
     7
 74
     1
 91
        4
 64
     7
 65
   257
 75
     1
175
     1
 42
1.0
 92
        0
 66
   257
 43
1.0
 76
     1
 77
     6
 78
     2
 67
     7
 79
     5
170
     0
171
     0
290
     0
174
     0
 93
        1
 44
0.0
173
     0
291
     0
 45
0.0
1001
ACAD
1000
AcDbSavedByObjectVersion
1070
     0
  0
VISUALSTYLE
  5
2A41
102
{ACAD_REACTORS
330
2A39
102
}
330
2A39
100
AcDbVisualStyle
  2
3D Hidden
 70
     6
 71
     1
 72
     2
 73
     2
 90
        0
 40
-0.6
 41
-30.0
 62
     5
 63
     7
 74
     2
 91
        2
 64
     7
 65
   257
 75
     2
175
     1
 42
40.0
 92
        0
 66
   257
 43
1.0
 76
     1
 77
     6
 78
     2
 67
     7
 79
     3
170
     0
171
     0
290
     0
174
     0
 93
        1
 44
0.0
173
     0
291
     0
 45
0.0
1001
ACAD
1000
AcDbSavedByObjectVersion
1070
     0
  0
VISUALSTYLE
  5
2A40
102
{ACAD_REACTORS
330
2A39
102
}
330
2A39
100
AcDbVisualStyle
  2
3dWireframe
 70
     5
 71
     0
 72
     2
 73
     0
 90
        0
 40
-0.6
 41
-30.0
 62
     5
 63
     7
 74
     1
 91
        4
 64
     7
 65
   257
 75
     1
175
     1
 42
1.0
 92
        0
 66
   257
 43
1.0
 76
     1
 77
     6
 78
     2
 67
     7
 79
     5
170
     0
171
     0
290
     0
174
     0
 93
        1
 44
0.0
173
     0
291
     0
 45
0.0
1001
ACAD
1000
AcDbSavedByObjectVersion
1070
     0
  0
VISUALSTYLE
  5
2A3E
102
{ACAD_REACTORS
330
2A39
102
}
330
2A39
100
AcDbVisualStyle
  2
Basic
 70
     7
 71
     1
 72
     0
 73
     1
 90
        0
 40
-0.6
 41
-30.0
 62
     5
 63
     7
 74
     0
 91
        4
 64
     7
 65
   257
 75
     1
175
     1
 42
1.0
 92
        8
 66
     7
 43
1.0
 76
     1
 77
     6
 78
     2
 67
     7
 79
     5
170
     0
171
     0
290
     0
174
     0
 93
        1
 44
0.0
173
     0
291
     1
 45
0.0
1001
ACAD
1000
AcDbSavedByObjectVersion
1070
     0
  0
VISUALSTYLE
  5
2A45
102
{ACAD_REACTORS
330
2A39
102
}
330
2A39
100
AcDbVisualStyle
  2
Brighten
 70
    12
 71
     2
 72
     2
 73
     0
 90
        0
 40
-0.6
 41
-30.0
 62
     5
 63
     7
 74
     1
 91
        4
 64
     7
 65
   257
 75
     1
175
     1
 42
1.0
 92
        8
 66
     7
 43
1.0
 76
     1
 77
     6
 78
     2
 67
     7
 79
     5
170
     0
171
     0
290
     0
174
     0
 93
        1
 44
50.0
173
     0
291
     1
 45
0.0
1001
ACAD
1000
AcDbSavedByObjectVersion
1070
     0
  0
VISUALSTYLE
  5
2A49
102
{ACAD_REACTORS
330
2A39
102
}
330
2A39
100
AcDbVisualStyle
  2
ColorChange
 70
    16
 71
     2
 72
     2
 73
     3
 90
        0
 40
-0.6
 41
-30.0
 62
     5
 63
     8
 74
     1
 91
        4
 64
     7
 65
   257
 75
     1
175
     1
 42
1.0
 92
        8
 66
     8
 43
1.0
 76
     1
 77
     6
 78
     2
 67
     7
 79
     5
170
     0
171
     0
290
     0
174
     0
 93
        1
 44
0.0
173
     0
291
     1
 45
0.0
1001
ACAD
1000
AcDbSavedByObjectVersion
1070
     0
  0
VISUALSTYLE
  5
2A42
102
{ACAD_REACTORS
330
2A39
102
}
330
2A39
100
AcDbVisualStyle
  2
Conceptual
 70
     9
 71
     3
 72
     2
 73
     0
 90
        0
 40
-0.6
 41
-30.0
 62
     5
 63
     7
 74
     2
 91
        2
 64
     7
 65
   257
 75
     1
175
     1
 42
40.0
 92
        8
 66
     7
 43
1.0
 76
     1
 77
     6
 78
     2
 67
     7
 79
     3
170
     0
171
     0
290
     0
174
     0
 93
        1
 44
0.0
173
     0
291
     0
 45
0.0
1001
ACAD
1000
AcDbSavedByObjectVersion
1070
     0
  0
VISUALSTYLE
  5
2A44
102
{ACAD_REACTORS
330
2A39
102
}
330
2A39
100
AcDbVisualStyle
  2
Dim
 70
    11
 71
     2
 72
     2
 73
     0
 90
        0
 40
-0.6
 41
-30.0
 62
     5
 63
     7
 74
     1
 91
        4
 64
     7
 65
   257
 75
     1
175
     1
 42
1.0
 92
        8
 66
     7
 43
1.0
 76
     1
 77
     6
 78
     2
 67
     7
 79
     5
170
     0
171
     0
290
     0
174
     0
 93
        1
 44
-50.0
173
     0
291
     1
 45
0.0
1001
ACAD
1000
AcDbSavedByObjectVersion
1070
     0
  0
VISUALSTYLE
  5
2A48
102
{ACAD_REACTORS
330
2A39
102
}
330
2A39
100
AcDbVisualStyle
  2
Facepattern
 70
    15
 71
     2
 72
     2
 73
     0
 90
        0
 40
-0.6
 41
-30.0
 62
     5
 63
     7
 74
     1
 91
        4
 64
     7
 65
   257
 75
     1
175
     1
 42
1.0
 92
        8
 66
     7
 43
1.0
 76
     1
 77
     6
 78
     2
 67
     7
 79
     5
170
     0
171
     0
290
     0
174
     0
 93
        1
 44
0.0
173
     0
291
     1
 45
0.0
1001
ACAD
1000
AcDbSavedByObjectVersion
1070
     0
  0
VISUALSTYLE
  5
2A3A
102
{ACAD_REACTORS
330
2A39
102
}
330
2A39
100
AcDbVisualStyle
  2
Flat
 70
     0
 71
     2
 72
     1
 73
     1
 90
        2
 40
-0.6
 41
30.0
 62
     5
 63
     7
 74
     0
 91
        4
 64
     7
 65
   257
 75
     1
175
     1
 42
1.0
 92
        8
 66
     7
 43
1.0
 76
     1
 77
     6
 78
     2
 67
     7
 79
     5
170
     0
171
     0
290
     0
174
     0
 93
       13
 44
0.0
173
     0
291
     1
 45
0.0
1001
ACAD
1000
AcDbSavedByObjectVersion
1070
     0
  0
VISUALSTYLE
  5
2A3B
102
{ACAD_REACTORS
330
2A39
102
}
330
2A39
100
AcDbVisualStyle
  2
FlatWithEdges
 70
     1
 71
     2
 72
     1
 73
     1
 90
        2
 40
-0.6
 41
30.0
 62
     5
 63
     7
 74
     1
 91
        4
 64
     7
 65
   257
 75
     1
175
     1
 42
1.0
 92
        0
 66
   257
 43
1.0
 76
     1
 77
     6
 78
     2
 67
     7
 79
     5
170
     0
171
     0
290
     0
174
     0
 93
       13
 44
0.0
173
     0
291
     1
 45
0.0
1001
ACAD
1000
AcDbSavedByObjectVersion
1070
     0
  0
VISUALSTYLE
  5
2A3C
102
{ACAD_REACTORS
330
2A39
102
}
330
2A39
100
AcDbVisualStyle
  2
Gouraud
 70
     2
 71
     2
 72
     2
 73
     1
 90
        2
 40
-0.6
 41
30.0
 62
     5
 63
     7
 74
     0
 91
        4
 64
     7
 65
   257
 75
     1
175
     1
 42
1.0
 92
        0
 66
     7
 43
1.0
 76
     1
 77
     6
 78
     2
 67
     7
 79
     5
170
     0
171
     0
290
     0
174
     0
 93
       13
 44
0.0
173
     0
291
     1
 45
0.0
1001
ACAD
1000
AcDbSavedByObjectVersion
1070
     0
  0
VISUALSTYLE
  5
2A3D
102
{ACAD_REACTORS
330
2A39
102
}
330
2A39
100
AcDbVisualStyle
  2
GouraudWithEdges
 70
     3
 71
     2
 72
     2
 73
     1
 90
        2
 40
-0.6
 41
30.0
 62
     5
 63
     7
 74
     1
 91
        4
 64
     7
 65
   257
 75
     1
175
     1
 42
1.0
 92
        0
 66
   257
 43
1.0
 76
     1
 77
     6
 78
     2
 67
     7
 79
     5
170
     0
171
     0
290
     0
174
     0
 93
       13
 44
0.0
173
     0
291
     1
 45
0.0
1001
ACAD
1000
AcDbSavedByObjectVersion
1070
     0
  0
VISUALSTYLE
  5
2A47
102
{ACAD_REACTORS
330
2A39
102
}
330
2A39
100
AcDbVisualStyle
  2
Linepattern
 70
    14
 71
     2
 72
     2
 73
     0
 90
        0
 40
-0.6
 41
-30.0
 62
     5
 63
     7
 74
     1
 91
        4
 64
     7
 65
   257
 75
     7
175
     7
 42
1.0
 92
        8
 66
     7
 43
1.0
 76
     1
 77
     6
 78
     2
 67
     7
 79
     5
170
     0
171
     0
290
     0
174
     0
 93
        1
 44
0.0
173
     0
291
     1
 45
0.0
1001
ACAD
1000
AcDbSavedByObjectVersion
1070
     0
  0
VISUALSTYLE
  5
2A43
102
{ACAD_REACTORS
330
2A39
102
}
330
2A39
100
AcDbVisualStyle
  2
Realistic
 70
     8
 71
     2
 72
     2
 73
     0
 90
        0
 40
-0.6
 41
-30.0
 62
     5
 63
     7
 74
     1
 91
        0
 64
     7
 65
   257
 75
     1
175
     1
 42
1.0
 92
        8
 66
     8
 43
1.0
 76
     1
 77
     6
 78
     2
 67
     7
 79
     5
170
     0
171
     0
290
     0
174
     0
 93
       13
 44
0.0
173
     0
291
     0
 45
0.0
1001
ACAD
1000
AcDbSavedByObjectVersion
1070
     0
  0
VISUALSTYLE
  5
2A46
102
{ACAD_REACTORS
330
2A39
102
}
330
2A39
100
AcDbVisualStyle
  2
Thicken
 70
    13
 71
     2
 72
     2
 73
     0
 90
        0
 40
-0.6
 41
-30.0
 62
     5
 63
     7
 74
     1
 91
        4
 64
     7
 65
   257
 75
     1
175
     1
 42
1.0
 92
       12
 66
     7
 43
1.0
 76
     1
 77
     6
 78
     2
 67
     7
 79
     5
170
     0
171
     0
290
     0
174
     0
 93
        1
 44
0.0
173
     0
291
     1
 45
0.0
1001
ACAD
1000
AcDbSavedByObjectVersion
1070
     0
  0
DICTIONARYVAR
  5
2B00
102
{ACAD_REACTORS
330
5BF
102
}
330
5BF
100
DictionaryVariables
280
     0
  1
STANDARD
  0
DICTIONARYVAR
  5
5C0
102
{ACAD_REACTORS
330
5BF
102
}
330
5BF
100
DictionaryVariables
280
     0
  1
1
  0
DICTIONARYVAR
  5
2B02
102
{ACAD_REACTORS
330
5BF
102
}
330
5BF
100
DictionaryVariables
280
     0
  1
0
  0
DICTIONARYVAR
  5
1BCE
102
{ACAD_REACTORS
330
5BF
102
}
330
5BF
100
DictionaryVariables
280
     0
  1

  0
DICTIONARYVAR
  5
2B01
102
{ACAD_REACTORS
330
5BF
102
}
330
5BF
100
DictionaryVariables
280
     0
  1
127
  0
XRECORD
  5
5A9
102
{ACAD_REACTORS
330
36A
102
}
330
0
100
AcDbXrecord
280
     1
330
0
330
0
330
0
330
0
330
0
330
0
  0
XRECORD
  5
5AA
102
{ACAD_REACTORS
330
36A
102
}
330
0
100
AcDbXrecord
280
     1
330
0
  0
XRECORD
  5
5AB
102
{ACAD_REACTORS
330
36A
102
}
330
0
100
AcDbXrecord
280
     1
330
0
330
0
330
0
330
0
330
0
330
0
  0
XRECORD
  5
5AC
102
{ACAD_REACTORS
330
36A
102
}
330
0
100
AcDbXrecord
280
     1
330
0
  0
XRECORD
  5
5AD
102
{ACAD_REACTORS
330
36A
102
}
330
0
100
AcDbXrecord
280
     1
330
0
  0
XRECORD
  5
5AE
102
{ACAD_REACTORS
330
36A
102
}
330
0
100
AcDbXrecord
280
     1
330
0
  0
XRECORD
  5
5AF
102
{ACAD_REACTORS
330
36A
102
}
330
0
100
AcDbXrecord
280
     1
330
0
330
0
330
0
330
0
330
0
330
0
330
0
330
0
330
0
330
0
330
0
330
0
330
0
330
0
330
0
330
0
330
0
330
0
330
0
330
0
330
0
330
0
330
0
330
0
330
0
330
0
330
0
330
0
330
0
330
0
330
0
330
0
330
0
330
0
330
0
330
0
330
0
  0
XRECORD
  5
5B0
102
{ACAD_REACTORS
330
36A
102
}
330
0
100
AcDbXrecord
280
     1
330
0
330
0
330
0
330
0
  0
XRECORD
  5
5B1
102
{ACAD_REACTORS
330
36A
102
}
330
0
100
AcDbXrecord
280
     1
330
0
330
0
  0
XRECORD
  5
5B2
102
{ACAD_REACTORS
330
36A
102
}
330
0
100
AcDbXrecord
280
     1
330
0
330
0
  0
DICTIONARY
  5
2B2C
330
5BA
100
AcDbDictionary
280
     1
281
     1
  3
ACAD_XREC_ROUNDTRIP
360
2B2D
  0
DICTIONARY
  5
2B2A
330
5B9
100
AcDbDictionary
280
     1
281
     1
  3
ACAD_XREC_ROUNDTRIP
360
2B2B
  0
DICTIONARY
  5
2B30
330
2A37
100
AcDbDictionary
280
     1
281
     1
  3
ACAD_XREC_ROUNDTRIP
360
2B31
  0
DICTIONARY
  5
2B2E
330
2A36
100
AcDbDictionary
280
     1
281
     1
  3
ACAD_XREC_ROUNDTRIP
360
2B2F
  0
DICTIONARY
  5
2B32
330
2A38
100
AcDbDictionary
280
     1
281
     1
  3
ACAD_XREC_ROUNDTRIP
360
2B33
  0
DICTIONARY
  5
2B34
330
2A4B
100
AcDbDictionary
280
     1
281
     1
  3
ACAD_XREC_ROUNDTRIP
360
2B35
  0
XRECORD
  5
2B2D
102
{ACAD_REACTORS
330
2B2C
102
}
330
2B2C
100
AcDbXrecord
280
     1
102
SHADEPLOT
 70
     0
102
SHADEPLOTRESLEVEL
 70
     2
102
SHADEPLOTCUSTOMDPI
 70
   300
  0
XRECORD
  5
2B2B
102
{ACAD_REACTORS
330
2B2A
102
}
330
2B2A
100
AcDbXrecord
280
     1
102
SHADEPLOT
 70
     0
102
SHADEPLOTRESLEVEL
 70
     2
102
SHADEPLOTCUSTOMDPI
 70
   300
  0
XRECORD
  5
2B31
102
{ACAD_REACTORS
330
2B30
102
}
330
2B30
100
AcDbXrecord
280
     1
102
MATERIAL
148
0.0
149
0.0
149
0.0
 93
        0
 94
       63
282
     0
 72
     1
 77
     1
171
     1
175
     1
179
     1
273
     0
  0
XRECORD
  5
2B2F
102
{ACAD_REACTORS
330
2B2E
102
}
330
2B2E
100
AcDbXrecord
280
     1
102
MATERIAL
148
0.0
149
0.0
149
0.0
 93
        0
 94
       63
282
     0
 72
     1
 77
     1
171
     1
175
     1
179
     1
273
     0
  0
XRECORD
  5
2B33
102
{ACAD_REACTORS
330
2B32
102
}
330
2B32
100
AcDbXrecord
280
     1
102
MATERIAL
148
0.0
149
0.0
149
0.0
 93
        0
 94
       63
282
     0
 72
     1
 77
     1
171
     1
175
     1
179
     1
273
     0
  0
XRECORD
  5
2B35
102
{ACAD_REACTORS
330
2B34
102
}
330
2B34
100
AcDbXrecord
280
     1
102
ACAD_ROUNDTRIP_PRE2007_TABLESTYLE
 90
      512
 91
        0
  1

 92
      512
 93
        0
  2

 94
      512
 95
        0
  3

  0
ENDSEC
  0
EOF
